Song name
# A B C D E F G H I J K L M N O P Q R S T U V W X Y Z

Monster Magnet - Spacelord tab

Monster Magnet - Spacelord

Verse:

E|----------x-x-----------------------x-x----------------|
B|----------x-x-2--0-0-0--------------x-x-0--2-0-0-------|
G|----------x-x-2--0-0-0--------------x-x-0--2-0-0-------|
D|---2--0-2-x-x-2--0-0-0-------2--0-2-x-x-0--2-0-0-------|
A|---2--0-2-x-x----------------2--0-2-x-x----------------|
E|---0--0-0-x-x----------------0--0-2-x-x----------------|

    let the first E (standart tuning)ring



Pre-/ small Chorus (ohhhhh)

E|--------------|
B|---2...-------|
G|---2...-------|
D|---2...-------|
A|--------------|
E|--------------|

  i think how to play the "pre- chorus" is obvious

__________________________________________________________


Chorus!

E|------------------------------------------|
B|------------------------------------------|
G|----9(9)-s-7-s-9-x-x-12-s-7---------------|
D|----9(9)-s-7-s-9-x-x-12-s-7---------------|
A|----7(7)-s-5-s-7-x-x-10-s-5---------------|
E|------------------------------------------|

  It's the same rythem like the first part of the verse

___________________________________________________________


Bridge:

E|----------------------------------------------------------------|
B|----------------------------------------------------------------|
G|----------------------------------------------------------------|
D|----------------------------------------------------------------|
A|---7~~~~~s-3~~~~~~------7-7-7-7-7-7-7-7-10-10-10-10-10-10-10-10-|
E|----------------------------------------------------------------|
  vibrate the "E" and the "C" | Here you also can play sixteenth part
Tap to rate this tab
# A B C D E F G H I J K L M N O P Q R S T U V W X Y Z