Song name
# A B C D E F G H I J K L M N O P Q R S T U V W X Y Z

Monster Magnet - 3rd Eye Landslide tab

Intro and verse:
guitar 1:
eb--------------------------------------------|
bb--------------------------------------------|
gb-12-12-12-12-13-12-10-10-10-10-10-10-12-12--|
db-12-12-12-12-13-12-10-10-10-10-10-10-12-12--|
ab--------------------------------------------|
eb--------------------------------------------|

eb-----------------------------------------|
bb-----------------------------------------|
gb-12-12-12-13-12-10-10-10-10-10-10-9-9-9--|
db-12-12-12-13-12-10-10-10-10-10-10-9-9-9--|
ab-----------------------------------------|
eb-----------------------------------------|

guitar 2:
eb----------------------------------------------------------------------------|
bb----------------------------------------------------------------------------|
gb-7-7-7-7-7-7/10-10-10-10-10-12-12-12-14-14-14-15-14-12-12-12-12-10-10-10-10-|
db----------------------------------------------------------------------------|
ab----------------------------------------------------------------------------|
eb----------------------------------------------------------------------------|
   Don't know if I typed out the right number of notes, but listen
   to the CD and you'll get it.

Chorus:
eb----------------------------------------------------|
bb----------------------------------------------------|
gb------------10-101010101010--12-12--12--10-10101010-|
db-12-12--12--10-101010101010--12-12--12--10-10101010-|
ab-12-12--12-x-8--8-8-8-8-8-8--10-10--10-x-8--8-8-8-8-|
eb-10-10--10------------------------------------------|

Postchorus: (livin on top...)
eb---------------------------| the last chord might be a D instead of a
bb---------------------------| G, but if you can't hear the difference
gb-------10-10---------12----| from an album, no one will be able to tell
db-12-12-10-10--10-10--12----| if you perform it live. try both and see
ab-12-12--8--8--10-10--10----| which chord you prefer.
eb-10-10---------8--8--------|
Tap to rate this tab
 
# A B C D E F G H I J K L M N O P Q R S T U V W X Y Z