Song name
# A B C D E F G H I J K L M N O P Q R S T U V W X Y Z

Monster Magnet - The Game tab

Monster Magnet - The Game
Tuned 1/2 Step Down - Eb-Ab-Db-Gb-Bb-Eb

Tabbed and lyrics transcribed by Zom-B.


eb|--------------------------|--------------------------|
Bb|--------------------------|--------------------------|
Gb|.-------0-----------0-----|-------0-----------------.|
Db|.-----2---2-------0---0---|-----2---2-------0-----0-.|
Ab|----2-------2---2-------2-|---2-------2---2-----0----|
Eb|--0-----------3-----------|-0-----------3-----2------| x2

eb|---------------------------|
Bb|---------------------------|
Gb|.-------0-----------0-----.|
Db|.-----2---2-------0---0---.|
Ab|----2-------2---2-------2--|
Eb|--0-----------3------------| x7

Hey little friend,
This ain't the end,
It's just become perfectly clear.

This hole ain't so bad,
And I'm almost glad,


eb|-------------------------|-------------------------|
Bb|-------------------------|-------------------------|
Gb|-------0-----------0-----|-------0-----------------|
Db|-----2---2-------0---0---|-----2---2-------0-----0-|
Ab|---2-------2---2-------2-|---2-------2---2-----0---|
Eb|-0-----------3-----------|-0-----------3-----2-----|

You can't make a phone call from here.


    G#                                    B       C#
eb|-0-----------0-------------0---------------------------|
Bb|-2-----------2-------------2-----------5---5---7---7---|
Gb|-2---------2-2-----------2-2-----------5-5-5-5-7-7-7-7-|
Db|-2-2-2-2-2-2-2-2-2-2-2-2-2-2-2-2-2-2-2-5-5-5-5-7-7-7-7-|
Ab|-0-0-0-0-0-0-0-0-0-0-0-0-0-0-0-0-0-0-0-3-3-3-3-5-5-5-5-|
Eb|-------------------------------------------------------|

But I, can hear things move.


eb|--------------------------|--------------------------|
Bb|--------------------------|--------------------------|
Gb|.-------0-----------0-----|-------0-----------------.|
Db|.-2---2---2-------0---0---|-----2---2-------0-----0-.|
Ab|--2-2-------2---2-------2-|---2-------2---2-----0----|
Eb|--0-----------3-----------|-0-----------3-----2------| x2

eb|---------------------------|
Bb|---------------------------|
Gb|.-------0-----------0-----.|
Db|.-----2---2-------0---0---.|
Ab|----2-------2---2-------2--|
Eb|--0-----------3------------| x7

I found me a bone,
I work it alone,
Hell, I've been numb for a week and a half.

But I'm ready for you, babe,
And the things that you do.


eb|-------------------------|-------------------------|
Bb|-------------------------|-------------------------|
Gb|-------0-----------0-----|-------0-----------------|
Db|-----2---2-------0---0---|-----2---2-------0-----0-|
Ab|---2-------2---2-------2-|---2-------2---2-----0---|
Eb|-0-----------3-----------|-0-----------3-----2-----|

The thing I do best is react. Hey, hey.


    G#                                    B       C#
eb|-0-----------0-------------0---------------------------|
Bb|-2-----------2-------------2-----------5---5---7---7---|
Gb|-2---------2-2-----------2-2-----------5-5-5-5-7-7-7-7-|
Db|-2-2-2-2-2-2-2-2-2-2-2-2-2-2-2-2-2-2-2-5-5-5-5-7-7-7-7-|
Ab|-0-0-0-0-0-0-0-0-0-0-0-0-0-0-0-0-0-0-0-3-3-3-3-5-5-5-5-|
Eb|-------------------------------------------------------|

But I, can hear things move.


eb|--------------------------|--------------------------|
Bb|--------------------------|--------------------------|
Gb|--------0-----------0-----|-------0------------------|
Db|--2---2---2-------0---0---|-----2---2-------0-----0--|
Ab|--2-2-------2---2-------2-|---2-------2---2-----0----|
Eb|--0-----------3-----------|-0-----------3-----2------|

    G#                                    B       C#
eb|-0-----------0-------------0---------------------------|
Bb|-2-----------2-------------2-----------5---5---7---7---|
Gb|-2---------2-2-----------2-2-----------5-5-5-5-7-7-7-7-|
Db|-2-2-2-2-2-2-2-2-2-2-2-2-2-2-2-2-2-2-2-5-5-5-5-7-7-7-7-|
Ab|-0-0-0-0-0-0-0-0-0-0-0-0-0-0-0-0-0-0-0-3-3-3-3-5-5-5-5-|
Eb|-------------------------------------------------------|

Yes I, can hear things move.


eb|--------------------------|--------------------------|
Bb|--------------------------|--------------------------|
Gb|.-------0-----------0-----|-------0-----------------.|
Db|.-2---2---2-------0---0---|-----2---2-------0-----0-.|
Ab|--2-2-------2---2-------2-|---2-------2---2-----0----|
Eb|--0-----------3-----------|-0-----------3-----2------| x2

     D#                    F#                    Badd9     F#        D#
eb|--0---------0---------|-3---------3---------|-3-----3-3-3-----3-3-0-0----------|
Bb|--0---0---0-0---0---0-|-3---3---3-3---3---3-|-3-3-3-3-3-3-3-3-3-3-0-0-0---0-0--|
Gb|.-1-1-1-1-1-1-1-1-1-1-|-0-0-0-0-0-0-0-0-0-0-|-0-0-0-0-0-0-0-0-0-0-1-1-1-1-1-1-.|
Db|.-2-2-2-2-2-2-2-2-2-2-|-0-2-2-2-2-2-2-2-2-2-|-2-2-2-2-2-0-0-0-0-0-2-2-2-2-2-2-.|
Ab|--2-2-2-2-2-2-2-2-2-2-|-2-2-2-2-2-2-2-2-2-2-|-3-3-3-3-3-2-2-2-2-2-2-2-2-2-2-2--|
Eb|--0-0-0-0-0-0-0-0-0-0-|-3-3-3-3-3-3-3-3-3-3-|-----------3-3-3-3-3-0-0-0-0-0-0--| x4

Last night I dreamed I was having a dream and the Earth rose up.
It split open wide there was something inside but I couldn't tell what.

A voice said to me "Boy, have you had enough?", I said "More, more, more!"
That's when I saw the game I was looking for Was looking straight at me.


eb|--------------------------|--------------------------|
Bb|--------------------------|--------------------------|
Gb|.-------0-----------0-----|-------0-----------------.|
Db|.-2---2---2-------0---0---|-----2---2-------0-----0-.|
Ab|--2-2-------2---2-------2-|---2-------2---2-----0----|
Eb|--0-----------3-----------|-0-----------3-----2------| x2

Straight at me.


eb|---------------------------|
Bb|---------------------------|
Gb|.-------0-----------0-----.|
Db|.-----2---2-------0---0---.|
Ab|----2-------2---2-------2--|
Eb|--0-----------3------------| x7

Hey little friend,
This ain't the end,
It's just become perfectly clear.

This hole ain't so bad,
And I'm almost glad,


eb|-------------------------|-------------------------|
Bb|-------------------------|-------------------------|
Gb|-------0-----------0-----|-------0-----------------|
Db|-----2---2-------0---0---|-----2---2-------0-----0-|
Ab|---2-------2---2-------2-|---2-------2---2-----0---|
Eb|-0-----------3-----------|-0-----------3-----2-----|

You can't make a phone call from here.


    G#                                    B       C#
eb|-0-----------0-------------0---------------------------|
Bb|-2-----------2-------------2-----------5---5---7---7---|
Gb|-2---------2-2-----------2-2-----------5-5-5-5-7-7-7-7-|
Db|-2-2-2-2-2-2-2-2-2-2-2-2-2-2-2-2-2-2-2-5-5-5-5-7-7-7-7-|
Ab|-0-0-0-0-0-0-0-0-0-0-0-0-0-0-0-0-0-0-0-3-3-3-3-5-5-5-5-|
Eb|-------------------------------------------------------|

But I, can hear things move.


eb|-------------------------|-------------------------|
Bb|-------------------------|-------------------------|
Gb|-------0-----------0-----|-------0-----------------|
Db|-2---2---2-------0---0---|-----2---2-------0-----0-|
Ab|-2-2-------2---2-------2-|---2-------2---2-----0---|
Eb|-0-----------3-----------|-0-----------3-----2-----|

    G#                                    B       C#
eb|-0-----------0-------------0---------------------------|
Bb|-2-----------2-------------2-----------5---5---7---7---|
Gb|-2---------2-2-----------2-2-----------5-5-5-5-7-7-7-7-|
Db|-2-2-2-2-2-2-2-2-2-2-2-2-2-2-2-2-2-2-2-5-5-5-5-7-7-7-7-|
Ab|-0-0-0-0-0-0-0-0-0-0-0-0-0-0-0-0-0-0-0-3-3-3-3-5-5-5-5-|
Eb|-------------------------------------------------------|

Yes I, can hear things move.


eb|--------------------------|--------------------------|
Bb|--------------------------|--------------------------|
Gb|.-------0-----------0-----|-------0-----------------.|
Db|.-2---2---2-------0---0---|-----2---2-------0-----0-.|
Ab|--2-2-------2---2-------2-|---2-------2---2-----0----|
Eb|--0-----------3-----------|-0-----------3-----2------| x2

I think it's found me.
I think it's found me.
I think it's found me.


eb|----|
Bb|----|
Gb|----|
Db|-2=-|
Ab|-2=-|
Eb|-0=-|
Tap to rate this tab
 
# A B C D E F G H I J K L M N O P Q R S T U V W X Y Z