Song name
# A B C D E F G H I J K L M N O P Q R S T U V W X Y Z

Monster Magnet - Atomic Clock tab

Monster Magnet
Atomic Clock
By Ted
Tune down to C Standard


                                        bend, hold and release
Verse                                    ____________________ 
E|---------------------|---------------------|---------------------|| Variations in bends,
B|---------------------|----*----------------|---------------------|| ornamental slides,
G|-----------------5-5-|-5--5/(7)-7--(7)b----|----------------(7)--|| and pick scraping
D|-7----7----7-7---5-5-|-5--5/(7)-7--(7)b----|----------------(7)--|| in some repeats.
A|-7----7----7-7-x-3-3-|-3--3/(5)-5--(5)b----|----------------(5)--||
E|-5----5----5-5-x-----|---------------------|---------------------||
                            * Last repeat of each Verse ends here



Chorus Part 1
  Guitar 1 (Phil)
E|-----------------------------------------||
B|-----------------------------------------||
G|-----------------------------------------||
D|---------------------------------------5-||
A|-7----7--7--5h7--7--5h7--7--5h7--7-------||
E|-----------------------------------------||
 |
 |Guitar 2 (Ed)
E|-----------------------------------------||
B|-----------------------------------------||
G|-----------------------------------------||
D|-14--14-14-14-14-14-14--14-14-14-14------||
A|-14--14-14-14-14-14-14--14-14-14-14------||
E|-12--12-12-12-12-12-12--12-12-12-12------||

Chorus Part 2
Both Guitars
E|--------------------------------|
B|--------------------------------|
G|--------------------------------|
D|-4--4-4-4-4--4-4-4--4-4-4-4--5--|
A|-4--4-4-4-4--4-4-4--4-4-4-4--5--|
E|-2--2-2-0h2--2-0h2--2-2-2-2--3--|




Break 1
Three guitars tabbed for one
E|-----------------------------------------------| Bends are 
B|-------17b--17r--17b---17r--17b--17r--17b-17b--| half step.
G|-9--9------------------------------------------| Release is
D|-9--9------------------------------------------| partial.
A|-7--7------------------------------------------|
E|-0--0------------------------------------------|

E|-----------------------------------------------| Bend on 20
B|-------17b--17r--20b--20b-20b-20b-20b-20b-(20)-| is 1 and 1.5
G|-9--9------------------------------------------| steps.
D|-9--9------------------------------------------|
A|-7--7------------------------------------------|
E|-0--0------------------------------------------|




2nd Chorus Ending 
E|-----------------------------------------|--------|-------|| 
B|-----------------------------------------|--------|-------||
G|-----------------------------------------|-*------|-------||
D|---------------------------------------5-|-7------|-------||
A|-7----7--7--5h7--7--5h7--7--5h7--7-----5-|-7------|-------||
E|---------------------------------------3-|-5------|-------||
                                             *Hold for two bars



Bridge
E|----------------------------|---------------------------||
B|----------------------------|---------------------------||
G|-9--9-9-9--9-9--9-9-9-9--12-|-7--7-7-7--7-7--7-7-7-7--9-||
D|-9--9-9-9--9-9--9-9-9-9--12-|-7--7-7-7--7-7--7-7-7-7--9-||
A|-7--7-7-7--7-7--7-7-7-7--10-|-5--5-5-5--5-5--5-5-5-5--8-||
E|----------------------------|---------------------------||




Break 2  
Three guitars tabbed for one
E|-----------------------------------------------| Bends are 
B|-------17b--17r--17b---17r--17b--17r--17b-17b--| half step.
G|-9--9------------------------------------------| Release is
D|-9--9------------------------------------------| partial.
A|-7--7------------------------------------------|
E|-0--0------------------------------------------|

E|-----------------------------------------------| Bend on 20
B|-------17b--17r--20b--20b-20b-20b-20b-20b-(20)-| is 1 and 1.5
G|-9--9------------------------------------------| steps.
D|-9--9------------------------------------------|
A|-7--7------------------------------------------|
E|-0--0------------------------------------------|

E|-----------------------------------------------| Bend is
B|-------22b-----------------------------(22)----| half step
G|-9--9------------------------------------------| 
D|-9--9------------------------------------------|
A|-7--7------------------------------------------|
E|-0--0------------------------------------------|

    Let ring
E|-----------------------------------------------||End Break 2
B|-----------------------------------------------||
G|-9---------------------------------------------||
D|-9---------------------------------------------||
A|-7---------------------------------------------||
E|-0---------------------------------------------||
Tap to rate this tab
# A B C D E F G H I J K L M N O P Q R S T U V W X Y Z