Song name
# A B C D E F G H I J K L M N O P Q R S T U V W X Y Z

Monster Magnet - Twin Earth tab

TWIN EARTH

3/4 time
in the key of Bm
tune down 1/2 step
r = rest


CHORUS RIFF:
 e|------------------------------------------|
 B|------------------------------------------|
 G|o----------------------------------------o|
 D|o--9-/12--9-/12--9-/12--9-/12--9-9-9-9---o|
 A|---9-/12--9-/12--9-/12--9-/12--9-9-9-9----|
 E|---7-/10--7-/10--7-/10--7-/10--7-7-7-7----|



VERSE RIFF A:
      
 e|-------------------------------|
 B|-------------------------------|
 G|o-----------------------------o|
 D|o--------------------11\9-9---o|
 A|---9--9-9-/12--12-r---9\7-7----|
 E|---7--7-7-/10--10-r------------|



VERSE RIFF B:
      
 e|------------------------------|
 B|------------------------------|
 G|o----------------------------o|
 D|o--7--7-7-----------5-5-5----o|
 A|---5--5-5-3--3-r----5-5-5-----|
 E|----------1--1-r----3-3-3-----|



BRIDGE: 4/4 time | C#5 Strummed for 8 Bars|
Tap to rate this tab
# A B C D E F G H I J K L M N O P Q R S T U V W X Y Z