Song name
# A B C D E F G H I J K L M N O P Q R S T U V W X Y Z

Monster Magnet - Atomic Clock tab

Tune down 1/2 step

^ =pull up gradually

INTRO and VERSE:

|------------------------|
|------------------------|
|------------------------|
|--4--4--4-7-7-7--7---9^-|
|--4--4--4-7-7-7--7---9^-|
|--2--2--2-5-5-5--5---7^-|

CHORUS:

|------------------------------|
|------------------------------|
|------------------------------|
|------------------------------|
|----------------------------7-|
|-9--9-9-7h9-9-7h9-9-7h9-9-9---|

BRIDGE:

|------------------|
|------------------|
|------------------|
|--2--2--------2---|
|--2--2--------2---|
|--0--0--------0---|

SOLO RIFF:

|-------------------------------|
|-------------------------------|
|-------------------------------|
|-------------------------------|
|-----------------------------7-|
|--9--9-9-7h9-9-7h9-9-7h9-9-9---|

|--------------------------------|
|--------------------------------|
|--------------------------------|
|--------------------------------|
|-----------------------------5--|
|--7--7-7-5h7-7-5h7-7-5h7-7-7----|


klanhitman@rediffmail.com
Tap to rate this tab
# A B C D E F G H I J K L M N O P Q R S T U V W X Y Z