Song name
# A B C D E F G H I J K L M N O P Q R S T U V W X Y Z

Monster Magnet - Temple Of Your Dreams tab

Eb tuning

Verse riff:
eb-----------------------------|
bb-----------------------------|
gb-----------------------------|
db------------------------7-7--|
ab-9--9-9-9-7-7--9--9-9-9------|
eb-----------------------------|

Chorus:
eb-------------------------------------|
bb-------------------------------------|
gb-11--11-11--9--9--14--14-14--16--16--|
db-11--11-11--9--9--14--14-14--16--16--|
ab--9---9--9--7--7--12--12-12--14--14--|
eb-------------------------------------|

eb-------------------|
bb-------------------|
gb-------------------|
db-------------------|
ab-------0-2h3-2-0---|
eb-(2)-2-------------|

Bridge:
eb-----------------|
bb-----------------|
gb-----------------|
db-----------------|
ab-----4-4-----2---|
eb-0-0-----0-0-----|

Verse variation guitar 1:
eb--------------------------------------------------|
bb--------------------------------------------------|
gb--------------------------------------------------|
db------------11-------11\9------9\7-------7thrill9-|
ab-9--------9---------------------------------------|
eb--------------------------------------------------|

Verse variation guitar 2:
eb-------------------------------|
bb-------------------------------|
gb-------------------------------|
db-------------7-------------7---|
ab-9----7-9------9----7-9------9-|
Tap to rate this tab
 
# A B C D E F G H I J K L M N O P Q R S T U V W X Y Z