Song name
# A B C D E F G H I J K L M N O P Q R S T U V W X Y Z

Monster Magnet - Radiation Day tab

RADIATION DAY
Monster Magnet

Taken from the album Monolithic Baby! (2004)

Transcribed by: Damian Pamminger (TwitcheD_85@hotmail.com)

Tune down 2 whole steps (low to high: C F Bb Eb G C)

 Rhy. Fig. 1
|--------------------------------------|
|--------------------------------------|
|--------------------------------------|
|--------------------------------------|
|--------------------------------------|
|-10h12-12-12-0-0---0--3-3~--0-2-2~--0-|
<---------3x---------->

 Rhy. Fig. 2
|--------------------------------|
|--------------------------------|
|-x-9-9--x-12-12--x-7-7-7-7------|
|-x-9-9--x-12-12--x-7-7-7-7-7-7--|
|-x-7-7--x-10-10--x-5-5-5-5-7-7--|
|---------------------------5-5--|

 Rhy. Fig. 3a
|--------------------------------------------------|
|--------------------------------------------------|
|--------------------------------------------------|
|--------------------------------------------------|
|--------------------------------------------------|
|-3-0---3-0---3-0---3-0----0-0--0-2~~---0-0--0-5~~-|

 Rhy. Fig. 3b
|--------------------------------------------------|
|--------------------------------------------------|
|-7-9---7-9---7-9---7-9----------------------------|
|-7-9---7-9---7-9---7-9----------------------------|
|-5-7---5-7---5-7---5-7----------------------------|
|--------------------------0-0--0-2~~---0-0--0-5~~-|

 Rhy. Fig. 4 (Gtr. I and II)

 Gtr. I
|-------------------------------------------------------|
|-------------------------------------------------------|
|-------------------------------------------------------|
|-------------------------------------------------------|
|-------------------9-10-9h10p9------7----------9h-10-9-|
|-0--0--12--0-10--0-------------8-8-----0-10--0---------|
                                                        |
 Gtr. II                                                |
|-------------------------------------------------------|
|-------------------------------------------------------|
|-9-----------------------------5---------7-------------|
|-9-----------------------------5---------7-------------|
|-7-----------------------------3---------5-------------|
|-------------------------------------------------------|
Tap to rate this tab
 
# A B C D E F G H I J K L M N O P Q R S T U V W X Y Z