Song name
# A B C D E F G H I J K L M N O P Q R S T U V W X Y Z

Monster Squad - Brotherhood Unity tab

www.monstersquadpunks.com

INTRO:
e-------------------------------|
B-------------------------------|
G---8-9-8-11--------8-9-8-11*---|
D-9-8-9-8-11-11---9-8-9-8-11*---|
A-9-6-7-6-9--11---9-6-7-6-9-*---|
E-7----------9----7-------------|


VERSE:
e---------------------------------------|
B---------------------------------------|
G---------8-9-8-11-11-11-11-------------|(listen to the song to figure out the
D-9-9-9-9-8-9-8-11-11-11-11-11-11-11-11-| # of times to repeat.)
A-9-9-9-9-6-7-6-9--9--9--9--11-11-11-11-|
E-7-7-7-7-------------------9--9--9--9--|


CHORUS Pt1:
e----------------------------------|
B----------------------------------|
G---------11-11-11---------9-9-9-9-|
D-9-9-9-9-11-11-11-9-9-9-9-9-9-9-9-|
A-9-9-9-9-9--9--9--9-9-9-9-7-7-7-7-|
E-7-7-7-7----------7-7-7-7---------|


Pt2:
e----------------------------------------|
B----------------------------------------|
G----------11-11-11--9-9-9-9-9-9-9-------|
D-9-9-9-9-11-11-11-9-9-9-9-9-9-9---------|
A-9-9-9-9--9--9--9--7-7-7-7-7-7-7--------|
E-7-7-7-7--------------------------------|


Thats it! Just listen to the song to figure the timing and how many times to repeat the 
and Chorus.
e-mail me at armyofzombies123@yahoo.com if you have any questions or suggestions!
Tap to rate this tab
# A B C D E F G H I J K L M N O P Q R S T U V W X Y Z