Song name
# A B C D E F G H I J K L M N O P Q R S T U V W X Y Z

Monster Truck - Seven Seas Blues tab

Drop D Tuning

This song is pretty simple it's basically 3 parts.


Here's the Chorus/intro


e|-----------------------------------------------------------------------------|
B|-----------------------------------------------------------------------------|
G|-----------------------------------------------------------------------------|
D|------0----------0-----------------------------------------------------------|
A|-----------------------3--0----------1-0-------------------------------------|
D|---0------------0--------------------------5-0----3---2----------------------|



Verse Palm muted and then played open
e|---------------------------------------------------------------------------|
B|---------------------------------------------------------------------------|
G|---------------------------------------------------------------------------|
D|---0---0---0---0--0----0---0--0----0-3---3---3----3---3-3---3--3---3---3---|
A|---0---0---0---0--0----0---0--0----0-3---3---3----3---3-3---3--3---3---3---|
D|---0---0---0---0--0----0---0--0----0-3---3---3----3---3-3---3--3---3---3---|

Here's the breakdown section
e|------------------------------------------------------------------------------|
B|------------------------------------------------------------------------------|
G|------------------------------------------------------------------------------|
D|------------------------------------------------------------------------------|
A|---------------0-----------1--------------------------------------------------|
D|--0---0h2h3------0--------------5----3h5p3---------2h3p2----------------------|
Tap to rate this tab
# A B C D E F G H I J K L M N O P Q R S T U V W X Y Z