Song name
# A B C D E F G H I J K L M N O P Q R S T U V W X Y Z

Monster Truck - Sweet Mountain River tab

This is pretty rough, still working on it. Also, this is my first attempt at
tabbing a song by ear. Any comments or corrections are welcome.


Ending of intro solo...
E|-----------------------------------------|
B|--14pr12~--------------------------------|
G|-----------14pr12~--\11------------------|
D|-------------------------12v--11--14~----|
A|-----------------------------------------|
E|-----------------------------------------|

Build up palm muted...slowly release           1st ending
E||-------------------------------------------|---------------------||
B||-------------------------------------------|---------------------||
G||*------------------------------------------|-------------------*-||
D||*-------------------------------7--7--7--7-|-7--5--7--5--7br5--*-||
A||--7--7--7--7--7--5--7--5--7--5~------------|---------------------||
E||-------------------------------------------|---------------------||

Riffage!
E||--------------------------------------------||
B||--------------------------------------------||
G||*------------------------------------------*||Repeat lot's
D||*-------------------5----------------------*||
A||-----------3--5--7-----7--3--5--7--3--5--7--||
E||--0--3--5-----------------------------------||

Verse
E||-----------------------------||
B||-----------------------------||
G||*---------------------------*||Repeat lot's
D||*-------------------5-------*||
A||-----------3--5--7-----7~----||
E||--0--3--5--------------------||

Pre-Chorus bit
E|----------------------------------||-------------------------|
B|----------------------------------||-------------------------|
G|*--------------------------------*||-------------------------|
D|*-------------------5------------*||-------------------------|
A|-----------3--5--7-----7--3--5--7-||-3--5--7--5--3--5--3-----|
E|--0--3--5-------------------------||---------------------5---|

Chorus                                          1st ending
E||-------------------------------------------|---------------------||
B||-------------------------------------------|---------------------||
G||*------------------------------------------|-------------------*-||
D||*-------------------------------7--7--7--7-|-7--5--7--5--7br5--*-||
A||--7--7--7--7--7--5--7--5--7--5~------------|---------------------||
E||-------------------------------------------|---------------------||

Riffage!
E||--------------------------------------------||
B||--------------------------------------------||
G||*------------------------------------------*||Repeat lot's
D||*-------------------5----------------------*||
A||-----------3--5--7-----7--3--5--7--3--5--7--||
E||--0--3--5-----------------------------------||

Face Melting Solo:
...
..
.
Don't F**k With The Truck
Tap to rate this tab
# A B C D E F G H I J K L M N O P Q R S T U V W X Y Z