Song name
# A B C D E F G H I J K L M N O P Q R S T U V W X Y Z

Monster Truck - Power Of The People tab

Tuned to D Standard

I've only figured out part of the intro so far but I thought I'd write down what I have. 
It would help a lot if people could contribute in the comments!

This is the first tab I've ever tried to actually figure out myself, so there is 
probably a bunch of mistakes.
d|---------------------------------------------------------------------------|
A|---------------------------------------------------------------------------|
F|---------------------------------------------------------------------------|
C|--------------5-----------5-------------5-----------5-----5-7-5~-----------|
G|---------7-5----7~----------7~-----7-5----7~----------7~-------------------|
D|--/12-0~-----7------3-5-7-------0~-----7------3-5-7------------------------|

e|---------------------------------------------------------------------------|
B|---------------------------------------------------------------------------|
G|---------------------------------------------------------------------------|
D|--------------5-----------5-------------5-----------5-----5-7-5------------|
A|---------7-5----7~----------7~-----7-5----7~----------7~---------7---------|
E|------0~-----7------3-5-7-------0~-----7------3-5-7------------------------|
Tap to rate this tab
# A B C D E F G H I J K L M N O P Q R S T U V W X Y Z