Song name
# A B C D E F G H I J K L M N O P Q R S T U V W X Y Z

Monsters Of Folk - Say Please tab

---------------------------------------------------------------------------
		  Say Please - Monsters of Folk - (Solo)
---------------------------------------------------------------------------
Tabbed by: Folly (March 2010)

Tuning: Standard


this is the solo part of 'Say Please' - a basic interpretation...

e|-------------------------------------------------------------------------|
B|--10--10--10--10--10--8--10--8---------11/12--12--12--12--12-------------|
G|-------------------------------11----------------------------------------|
D|-----------------------------------9-------------------------------------|
A|-------------------------------------------------------------------------|
E|-------------------------------------------------------------------------|

e|-----------------------------------------------5/17--12--12--12--9--9--12|
B|----------------------------------8--10--12--8---------------------------|
G|------------11-----------------------------------------------------------|
D|-9--9--9------11--9--9--12--9--12----------------------------------------|
A|-------------------------------------------------------------------------|
E|-------------------------------------------------------------------------|

e|--9--9--8--7--6--6--9--9--10--14--10----------10------10-----------------|
B|--------------------------------------12--12------12-----12--------------|
G|-------------------------------------------------------------------------|
D|-------------------------------------------------------------------------|
A|-------------------------------------------------------------------------|
E|-------------------------------------------------------------------------|

e|-------------------------------------------------------------------------|
B|---11--11--12--11--11--12--11--11--12--11\0------------------------------|
G|-------------------------------------------------------------------------|
D|-------------------------------------------------------------------------|
A|-------------------------------------------------------------------------|
E|-------------------------------------------------------------------------|


************************************
| /   slide up
| \   slide down
************************************

Tap to rate this tab
 
# A B C D E F G H I J K L M N O P Q R S T U V W X Y Z