Song name
# A B C D E F G H I J K L M N O P Q R S T U V W X Y Z

Monte Montgomery - Its Alright tab

Artist: Monte Montgomery
Title: It's Alright
Album: 1st and Repair
Transcribed by: Preston
Email: audiophile8403@austin.rr.com

all frets relative to capo

Intro:
e|-0-|
B|-0-|
G|-9-|Strum in triplet-like pattern(listen to album for reference)
D|-9-|
A|-7-|
E|-0-|

Verse:
e|-------------|
B|-0--0--0--0--|
G|-9--9--9--9--| 2x
D|-9--7--6--7--|
A|-7--7--7--7--|
E|-0--0--0--0--|

Pre-Chorus:
e|----------------------------------|
B|-----------------------------0----|
G|-6-------6-------6-------6---4----|
D|-4---6---7---6---4---6---7---4----|
A|-4---6---7---6---4---6---7---2----|
E|-2---4---5---4---2---4---5--------|

Chorus:
e|--------------------------------------|
B|-0--0--0--0---0--0--0--0--0---0---0---|
G|-2--4--1--2---1--4--2--4--1---2---4---|(on "tonight," go straight back to verse)
D|-2--4--2--2---2--4--2--4--2---2---4---|
A|-0--2--2--0---2--2--0--2--2---0---2---|
E|-------0------0-----------------------|

Bridge:
e|--------------|
B|-0--0--0--0---|
G|-4--6--9--2---| 3x (on 3rd time go to the x2440x chord in chorus)
D|-4--6--9--2---|
A|-2--4--7--0---|
E|-0--0--0------|
Tap to rate this tab
# A B C D E F G H I J K L M N O P Q R S T U V W X Y Z