Song name
# A B C D E F G H I J K L M N O P Q R S T U V W X Y Z

Monte Montgomery - Took Too Long tab

Help us improve GuitareTab! Take a short survey!
Eb|--------------------------1p0---------------------------------------------|
Bb|----------0---1---3-5---------1---5---3---5---3---1-0---------------------|
Gb|----0h2-2-0---2---4-5-------------5---4---5---4---2-0---------------------|
Db|----0h2-2-------------0-0-------------------------------------------------|
Ab|------------0---0---------------------------0---0-------------------------|
Eb|--------------------------------0---0---0---------------------------------|

    I think its safe to say no one will ever be able to play any Monte Montgomery Song
for note. I mean he's just that good. However I think I got the chords pretty close. All
takes is to put a little bit of your own spin on it to make it work.

     You OFTEN...you LOVE...it MAKES...the one i HATE...
         |           |         |                 |
Eb|------3-----------5---------------4-----------0--------------------------|
Bb|------1-----------5---------9-----5-----------1--------------------------|
Gb|------2-----------7---------9--OR-7-----------2--------------------------|
Db|------2-----------7---------x-----x-----------2--------------------------|
Ab|------0-----------5---------7-----7-----------0--------------------------|
Eb|-------------------------------------------------------------------------|


      Ok Here is where it gets really tricky and weird. You'll have to bear with me here
of these chords are wrong but they work. AND REMEMBER THIS IS ONLY THE WAY I PLAY IT.
SURE THERE ARE MANY GUITAR PLAYERS (MAYBE YOU) THAT COULD THINK OF SOMETHING WAY BETTER. 
if you cant here you go:

   This part is Unison with the vocals. It goes as so:

         Nothin but the truth but what was mine...(lol i dont quite know all the lyrics)
                             MI.......NE.....................from the....
                             |        |
Eb|--------------------------0--------3-------------------------------------|
Bb|--------------------------1--------3-------------------------------------|
Gb|--------------------------2--------0-------------------------------------|
Db|--------------------------2--------x-------------------------------------|
Ab|------5-3-----------------0--------2-------------------------------------|
Eb|----------5-3-5-0-3-5----------------------------------------------------|

       Start.....Nothin                              ....a Love Sick
       |         |          (let this A ring for a sec)    |    |
Eb|-------------------------0------------------------------0----3-----------|
Bb|-------1----1----0----1--1------------------------------1----3-----------|
Gb|------2----2----0----1---2------------------------------2----0-----------|
Db|-----2----2----0----1----2------------------------------2----x-----------|
Ab|-------------------------0------------------------------0----2-----------|
Eb|----1----2----3----4-----------------------------------------------------|

                             LET THIS RING LOUD!!! THE BACK TO INTRO
Eb|---------------------------0---------------------------------------------|
Bb|-------1----1----0----1----0---------------------------------------------|
Gb|------2----2----0----1-----1---------------------------------------------|
Db|-----2----2----0----1------2---------------------------------------------|
Ab|---------------------------2---------------------------------------------|
Eb|----1----2----3----4-------0---------------------------------------------|

      Now.......Mice........Not......Love......Me........ive had JUST.....
      |         |           |        |         |                 |
Eb|---5---------4-----------5--------5---------0-----------------0----------|
Bb|---5---------5-----------5--------5---------1-----------------0----------|
Gb|---7---------7-----------5--------7---------2-----------------1----------|
Db|---7---------x-----------7--------7---------2-----------------2----------|
Ab|---5---------7-----------x--------5---------0-----------------2----------|
Eb|-------------------------7------------------------------------0----------|

      Guitar Solo:

Eb|-------------------------------------------------------------------------|
Bb|------10---12---13---12------10----13----12----10----------10---10---9---|
Gb|--7s9----9----9----9----9s10----10----10----10----10s7-7-7----7----7-----|
Db|-------------------------------------------------------------------------|
Ab|-------------------------------------------------------------------------|
Eb|-------------------------------------------------------------------------|

Eb|--------------------------Second Time Add This Lick On The End--|
Bb|----------------------------------------------------------------|
Gb|--7s9-9-9-7------------x2---------------------------------------|
Db|------------10-7------------5-----------------------------------|
Ab|------------------------------7-6-5-----------------------------|(and that five will 
chord into
Eb|-----------------------------------the bridge that repeats)-----|

    Well there yuh have it folks. I did the best i could. I hope somebody come's along
when there tryin to play one of the worlds greatest guitarist's song. Monte is my hero,
he doesnt get enough credit. So if you read this try to spread his music to as many 
as you know. Cause i dont think theres one guitarist that wouldn't like MONTE MONTGOMERY!
Related for Took Too Long tab