Song name
# A B C D E F G H I J K L M N O P Q R S T U V W X Y Z

Monty Are I - Dublin Waltz tab

MONTY ARE I - DUBLIN WALTZ

~ ring out
PM... palm mute

INTRO LEAD
e--5---5-4---4-2---2-0---------|
B----2-----2-----2-----2-0-2---|
G------------------------------|
D------------------------------|
A------------------------------|
E------------------------------|


INTRO RHYTHM
(there isn't a second guitar in the song, but a second
guitar could play this.)
e---------------------------------------|
B---------------------------------------|
G---------------------------------------|
D--4~--4~--4~--4-2-7--4~--4~--2~--7~----|
A--4~--4~--4~--4-2-7--4~--4~--2~--7~----|
E--2~--2~--2~--2-0-5--2~--2~--0~--5~----|

e---------------------------------------|
B---------------------------------------|
G---------------------------------------|
D--4~--4~--4~--4-2-7--4~--4~--4---------|
A--4~--4~--4~--4-2-7--4~--4~--4---------|
E--2~--2~--2~--2-0-5--2~--2~--2---------|


VERSES
e----------------------------------------------------|
B----------------------------------------------------|
G--------------2---------------------2---------------|
D----------2-4---4-2-------------2-4---4-2-----------|
A------2-4-----------4-2-----2-4-----------4-2-------|
E--2-5-------------------5-2-------------------5-----|

e-----------------------------------------------------|
B-----------------------------------------------------|
G--------------2--------------------------------------|
D----------2-4---4-2-----------------2h4---------2h4--|
A------2-4-----------4-2---------2h4---------2h4------|
E--2-5-------------------5-2-0-0---------0-0----------|


CHORUS
e---------------------|
B---------------------|
G--7~--7~-------------|
D--7~--7~-7-9-4-2-----|  x3
A--5~--5~-7-9-4-2-----|
E---------5-7-2-0-----|

e---------------------------|
B---------------------------|
G--7~--7~--6~--6~--6~--6~---|
D--7~--7~--6~--6~--6~--6~---|
A--5~--5~--4~--4~--4~--4~---|
E---------------------------|


BRIDGE               "watch your steps..."
e--5--4--2--0-------------------------------0-2----|
B--------------2--0-2-------------------0-2--------|
G--------------------------------------------------|
D--------------------------------------------------|
A--------------------------------------------------|
E--------------------------------------------------|

"adrenaline, the confirmation..."
e---------------------------------------|
B---------------------------------------|
G---------------------------------------|
D--4--4--4--4-2-7--4--4--222222777777---|
A--4--4--4--4-2-7--4--4--222222777777---|
E--2--2--2--2-0-5--2--2--000000555555---|
                       PM............


END CHORUS
e---------------------|
B---------------------|
G--7~--7~-------------|
D--7~--7~-7-9-4-2-----|  x3
A--5~--5~-7-9-4-2-----|
E---------5-7-2-0-----|

e---------------------------|
B---------------------------|
G--7~--7~--6~--6~--6~--6~---|
D--7~--7~--6~--6~--6~--6~---|
A--5~--5~--4~--4~--4~--4~---|
E---------------------------|

e---------------------------|
B---------------------------|
G--6-6-6-6-6-6-6-6-6-6-6-6--|
D--6-6-6-6-6-6-6-6-6-6-6-6--|
A--4-4-4-4-4-4-4-4-4-4-4-4--|
E---------------------------|
PM . . . . . . . . . . . .


OUTRO GUITAR LEAD
e-------|
B-------|
G--11---|
D--x----|
A--9----|
E-------|
rapidly, over and over and over

OUTRO HORN LEAD (comes in towards the end)
e--9------------9------------9------------9----12-------|
B-------9-10-12------9-10-12------9-10-12---12----------|
G----11-----------11-----------11-----------------------|
D-------------------------------------------------------|
A-------------------------------------------------------|
E-------------------------------------------------------|

OUTRO RHYTHM
e---------------------------------------|
B---------------------------------------|
G---------------------------------------|
D--4--4--4--4-2-7--4--4--4--4-2-7-------| x2
A--4--4--4--4-2-7--4--4--4--4-2-7-------|
E--2--2--2--2-0-5--2--2--2--2-0-5-------|

mtf4368@gmail.com
Tap to rate this tab
 
# A B C D E F G H I J K L M N O P Q R S T U V W X Y Z