Song name
# A B C D E F G H I J K L M N O P Q R S T U V W X Y Z

Monty Are I - Just In Time Acoustic tab

Song: Just in Time (acoustic)
Band: Monty are I
Album: Wall Of People
I watched a video on you tube of him playing this and this is my interpretation. Not 
correct but its close.
Tuning Half step down.

 (strum the chords) (second time play this)

                                (harmonic)
|-0-----0-----0--|------------------12----0----0-|
|-0-----0-----0--|-------0----------12----0----0-|
|-4-----4-----4--|------4--4/6-4--x-------4----4-|
|-2-----2-----2--|-----2---2/4-2--x-------2----2-|
|-0-----4-----2--|----0-------------------4----2-|
|----------------|-------------------------------|

    (verse)
|-0-----0-----0--|
|-0-----0-----0--|
|-4-----4-----4--|
|-2-----2-----2--|
|-0-----4-----2--|
|----------------|

     (chorus)
|-0-----0-----0--|
|-0-----0-----0--|
|-4-----4-----4--|
|-2-----2-----2--|
|-4-----2-----0--|
|----------------|

Bridge is the same as churus.
Tap to rate this tab
# A B C D E F G H I J K L M N O P Q R S T U V W X Y Z