Song name
# A B C D E F G H I J K L M N O P Q R S T U V W X Y Z

Monty Are I - Castle Bound tab

Help us improve GuitareTab! Take a short survey!
This song is tabbed first by Peter Doucette, i couldnt figure out the solo because there 
to much noise and two guitars playing the solo sorry everyone i got the cool guitar 
in the backround of the solo tho!

Intro (Synth-Transcibed to guitar)
|----------------------------------------------------------------------------|
|----------------------------------------------------------------------------|
|---------2------2p0----------2------2p0----------2------2p0----------2------|
|-2h3-2h3---2h3-2---3-2h3-2h3---2h3-2---3-2h3-2h3---2h3-2---3-2h3-2h3---2h3--|
|5---5---5-5---5-----4---4---4-4---4-----3---3---3-3---3-----4---4---4-4---4-|
|----------------------------------------------------------------------------|

End of intro
|-----
|-----
|----- Synth Drums then this plays again except with diffrent effect x?
|3~2~-
|----0
|-----

CHORUS

|-----------------------------------------------------------------|
|------2-xxxx---------XXXX----------------------------------------|
|2-5-5-2-xxxx---2-5-5-XXXX-5-----5-777-5-----5-777----------------|
|0-5-3-2-xxxx12-0-5-3-XXXX-3-000-3-555-3-000-3-555-(9-10-9-7------|9p7)
|0-3-3-4-xxxx12\0-3-3-XXXX-3-000-3-555-3-000-3-555----------------|
|0-3-x-x-xxxx12\0---3-XXXX---000---------000----------------------|
Strum as many times needed for first part of the chorus (Fill)

Verses
Triads
 Down Strokes on beat
|5-5-5-5-5-5-|
|5-6-5-6-5-6-|
|6-5-6-7-6-5-| Strum many times
|------------|
|------------|
|------------|

Backround solo guitar
|----------------------------------------------------------------------------|
|----------------------------------------------------------------------------|
|---------2------2p0----------2------2p0----------2------2p0----------2------|
|-2h3-2h3---2h3-2---3-2h3-2h3---2h3-2---3-2h3-2h3---2h3-2---3-2h3-2h3---2h3--|
|5---5---5-5---5-----4---4---4-4---4-----3---3---3-3---3-----4---4---4-4---4-|
|----------------------------------------------------------------------------|

|----
|----
|----
|3-2- X2?
|---0
|----

Chorus
Chorus
Related for Castle Bound tab