Song name
# A B C D E F G H I J K L M N O P Q R S T U V W X Y Z

Monty Norman - James Bond Theme tab

-------------------------------------------------------------------------------
			     James Bond Theme - Monty Norman
-------------------------------------------------------------------------------
Tabbed by: The Fwanksta 
Email: the_fwankster@hotmail.com
Date: April 2009

Tuning: standard

The only parts of this tab that I'm still not completely sure are correct
are riff 6 and the naming for the final chord. If anyone has any 
ideas feel free to email me and I'll try to make the appropriate
corrections. (Crediting the helpful emailer, of course.) I don't check
this email very often and I'm a busy undergraduate so I apologize if it
takes me awhile to respond or make the correction.

I have a video on youtube of me playing this exact transcription,
so feel free to check it out if you're having difficulty with timing, etc.:


http://www.youtube.com/watch?v=vhspq9Rtcho&feature=channel_page


Finally, this is my first tab so I apologize profusely if I've messed up or
broken tabbing protocol in the act of actually creating this document. It's 
about the music, right?


   [riff 1]


     Em      Emaug    Em6      Emaug
e|---0----0-0-0----0-0-0----0-0-0----0-0---|
B|---0----0-0-1----1-1-2----2-2-1----1-1---|
G|---0----0-0-0----0-0-0----0-0-0----0-0---|
D|---2----2-2-2----2-2-2----2-2-2----2-2---|
A|---2----2-2-2----2-2-2----2-2-2----2-2---|
E|---0----0-0-0----0-0-0----0-0-0----0-0---|


   [riff 2]


e|-------------------------------------------------|
B|-------------------------------------------------|
G|-------------------------------------------------|
D|-------------------------------------------------|
A|-------------------------------------------------|
E|---0---2-2-2~-2~--0-0-0--0---3-3-3~-3~--2-2-2~---|


   [riff 3]


e|-------------------------------------------------------------------|
B|-------------------------------------------------------------------|
G|-------------------------------------------------------------------|
D|-----------------------------------------------1-0-----------------|
A|--------------------------------------------------------2-0-2~-----|
E|---0---2-2-2~-2~--0-0-0--0---3-3-3~-3~--2-1-0~---------------------|


   [riff 4]


e|------------------------------------------------------------|
B|------------------------------------------------------------|
G|-------8-7~------3-5~---------------------------------------|
D|-----5---------5-----------5---7-5-4~------0-2--------------|
A|--/7-------------------------------------------4~-----------|
E|------------------------------------------------------------|

e|------------------------------------------------------------|
B|------------------------------------------------------------|
G|-------8-7~------3-5~---------------------------------------|
D|-----5---------5-----------5---7-5-4~-----------------------|
A|--/7--------------------------------------5-6-7~------------|
E|------------------------------------------------------------|


    [riff 5]


e|-------11-10~-----------------------------------------------|
B|-----8--------------11-12~----8---10-8-7~-------------------|
G|--/9------------/12----------------------------5------------|
D|---------------------------------------------7---6~---------|
A|------------------------------------------------------------|
E|------------------------------------------------------------|

e|-------11-10~-----------------------------------------------|
B|-----8--------------11-12~----8---10-8-7~-------------------|
G|--/9------------/12--------------------------7-8-9~---------|
D|------------------------------------------------------------|
A|------------------------------------------------------------|
E|------------------------------------------------------------|


    [riff 6]


    Em7        Fm7 Em7  Fm7   G          Fm7  Em7 Fm7
e|---7-7---7-7/9----7-7/9----------------9----7-7/9-----------|
B|---8-8---8-8/10---8-8/10----12-12---12-10---8-8/10----------|
G|---7-7---7-7/9----7-7/9-----12-12---12-9----7-7/9-----------|
D|---9-9---9-9/11---9-9/11----12-12---12-11---9-9/11----------|
A|---7-7---7-7/9----7-7/9-----10-10---10-9----7-7/9-----------|
E|------------------------------------------------------------|


    [riff 7]


    Em7       
e|---7-7-------7-7-------7-7--7-7--7---------|
B|---8-8-------8-8-------8-8--8-8--8---------|
G|---7-7-------7-7-------7-7--7-7--7---------| 
D|---9-9-------9-9-------9-9--9-9--9---------| 
A|---7-7-------7-7-------7-7--7-7--7---------|
E|---------0---------0-----------------------| 


    [riff 8]

                                                                  Em maj9
e|---------------------------------------------------11-10~-----------------|
B|---------------------8-7~----------11-10~-------10---------------7--------|
G|-------8-7~--------7-------------7----------/10------------------8--------|
D|-----5----------/9-----------/10---------------------------------9--------|
A|--/7-------------------------------------------------------------10-------|
E|-----------------------------------------------------------------0--------|



Song order:

[riff 1] x 2

[riff 2] x 2

[riff 3] x 1

[riff 2] x 2

[riff 3] x 1

[riff 1] x 2

[riff 4] x 1

[riff 5] x 1

[riff 6] x 2

[riff 7] x 1

[riff 1] x 1

[riff 2] x 2

[riff 3] x 1

[riff 8] x 1




| /  slide up
| \  slide down
| h  hammer-on
| p  pull-off
| ~  vibrato
| +  harmonic
| x  Mute note
===============================================================================
Tap to rate this tab
 
# A B C D E F G H I J K L M N O P Q R S T U V W X Y Z