Song name
# A B C D E F G H I J K L M N O P Q R S T U V W X Y Z

Monty Norman - Dr Nos Fantasy tab

Dr. No's Fantasy
Dr. No Soundtrack
Monty Norman

Main riff:

e|---8---s8-6-8-6-------------8---s8-6-8-6-------------|
B|---8------------8-6---6-8---8------------8-6---6-----|
G|---8----------------8-------8----------------8---5---|
D|---10-----------------------10-----------------------|
A|---10-----------------------10-----------------------|
E|-8-8----------------------8-8------------------------|

e|---8---s8-6-8-6------------x--x------6-8-10-10p8-6-8-|
B|---8------------8-6---6-8--x--x----8-----------------|
G|---8----------------8------x--x----------------------|
D|---10----------------------x--x----------------------|
A|---10----------------------x--x----------------------|
E|-8-8-----------------------x--x----------------------|


Bridge progression:

e|-----------------------------------------------------|
B|-----------------------------------------------------|
G|-----------------------------------------------------|
D|-5-5--7-7--8-8--10-10----5-5--7-8--8--10-10----------|
A|-3-3--5-5--6-6--8--8-----3-3--5-6--6--8--8-----------|
E|-----------------------------------------------------|

Bridge fill:

e|-----3s2-|
B|-----4s3-|
G|---5-----|
D|-5-------|
A|---------|
E|---------|

Bridge lead:

e|-----------------------------------------------------|
B|-16-15---16-15-16-15---------------------------------|
G|---------------------17-15-17h19p17------------------|
D|------------------------------------17--s17----------|
A|-----------------------------------------------------|
E|-----------------------------------------------------|

e|-------15-15----15-18--------15-15----15-------------|
B|-16-18-------18--------16-18-------18----18----------|
G|-----------------------------------------------------|
D|-----------------------------------------------------|
A|-----------------------------------------------------|
E|-----------------------------------------------------|

e|-----------------------------------------------------|
B|-15-16-18--18-16-18-16--15---------------------------|
G|---------------------------15--17h19p17p15-17--------|
D|-----------------------------------------------------|
A|-----------------------------------------------------|
E|-----------------------------------------------------|

Ending riff:

e|--------------------|
B|-16-15-16-15-11-8-6-|
G|------------------5-|
D|-13-12-13-12--8-5-6-|
A|------------------4-|
E|--------------------|

For more tabs from secret agent films and TV:
http://www.mister8.com
Tap to rate this tab
 
# A B C D E F G H I J K L M N O P Q R S T U V W X Y Z