Song name
# A B C D E F G H I J K L M N O P Q R S T U V W X Y Z

Monty Norman - James Bond Theme tab

This is my first tab so be gentle:



D#-----------------------------------------------------------------|
G#-----------------------------------------------------------------|
D#-----------------------------------------------------------------|
C#-3-3-3-3-3-3-3-3-3-3-3-3-3-3-3-3-3-3-3-3-3-3-3-3-3-3-3-3-3-3-3-3-|  X2
G#-3-3-3-3-3-3-3-3-4-4-4-4-4-4-4-4-5-5-5-5-5-5-5-5-4-4-4-4-4-4-4-4-|
C#-3-3-3-3-3-3-3-3-3-3-3-3-3-3-3-3-3-3-3-3-3-3-3-3-3-3-3-3-3-3-3-3-|

D#-----------------------------------------------------------------|
G#-----------------------------------------------------------------|
D#-----------------------------------------------------------------|
C#-3-3-3-3-3-3-3-3-3-3-3-3-3-3-3-3-3-3-3-3-3-3-3-3-3-3-3-3-3-3-3-3-|  X2
G#-3-3-3-3-3-3-3-3-4-4-4-4-4-4-4-4-5-5-5-5-5-5-5-5-4-4-4-4-4-4-4-4-|
C#-3-5-5-5-5-5-3-3-3-6-6-6-6-6-5-5-3-5-5-5-5-5-3-3-3-6-6-6-6-6-5-5-|

D#-----------------------------------------------------------------|
G#-----------------------------------------------------------------|
D#-----------------------------------------------------------------|
C#-3-5555-5-5-3-3-3-6666-6-6-5-5-3-5555-5-5-3-3-3-6666-6-6-5-5-----|  X2
G#-3-3333-3-3-3-3-4-4444-4-4-4-4-5-5555-5-5-5-5-4-4444-4-4-4-4-----|
C#-3-3333-3-3-3-3-3-3333-3-3-3-3-3-3333-3-3-3-3-3-3333-3-3-3-3-----|

D#------------------------------|
G#-----7-6---2-3----------------|
D#--4-------4------4-6p4--------|
C#-3--------------------5---3-0-|
G#-------------------------6----|
C#------------------------------|
Tap to rate this tab
 
# A B C D E F G H I J K L M N O P Q R S T U V W X Y Z