Song name
# A B C D E F G H I J K L M N O P Q R S T U V W X Y Z

Monty Norman - James Bond Theme tab

This is my first tab, I hope its good!

Intro:
E|-----------------------|
B|-----------------------|
G|-----------------------|
D|---------------- <-----| X2
A|---2---3---4---3-------|
E|-0---0---0---0---------|

E|------------------------------------------------        E|-------------------|
B|------------------------------------------------        B|-------------------|
G|------------------------------------------------        G|-------------------|
D|------------------------------------------------ <---X3 D|-2---0-------------|
A|---2---2---2-------------------3---3---3---2---2        A|---------2---0---2-|
E|-0-------------0---0---0---0--------------------        E|-------------------|

Then just repeat the intro.
Tap to rate this tab
 
# A B C D E F G H I J K L M N O P Q R S T U V W X Y Z