Song name
# A B C D E F G H I J K L M N O P Q R S T U V W X Y Z

Monty Norman - James Bond Theme tab

e|----------------------------------------------------|
B|----------------------------------------------------|
G|----------------------------------------------------|
D|----------------------------------------------------|
A|-2---3---4---2---3---4------------------------------|
E|---0---0---0---0---0--------------------------------|

e|--------------------------------------------|
B|--------------------------------------------|
G|--------------------------------------------|
D|--------------------------------------------|
A|--------------------------------------------|
E|-2-2-2-2-0-0-0-3-3-3-3-2-2-2-0--------------| 
 x2

e|----------------------------------------------------|
B|----------------------------------------------------|
G|----------------------------------------------------|
D|----------------------------2-0---------------------|
A|--------------------------------2-0-2---------------|
E|-2-2-2-2-0-0-0-3-3-3-3-2-1--------------------------|

e|-----0-------------------------------0------------------------|
B|-------3-----0-------------------------3-----0----------------|
G|---0-----0-3-------0~--------------0-----0-3--------0~--------|
D|-2--------------------4---2-1----2---------------------4---1-2|
A|------------------------2---------------------------------2---|
E|--------------------------------------------------------------|

e|----------------------------------------------------|
B|----------------------------------------------------|
G|----------------0-0---0-----------------------------|
D|--2-2---2-4-2-4-----------4-2-4---------------------|
A|----------------------------------------------------|
E|----------------------------------------------------|x2

e|----------------------------------------------------|
B|-0-0---0-0---0-0-0-0--------------------------------|
G|----------------------------------------------------|
D|----------------------------------------------------|
A|-----2-----2----------------------------------------|
E|----------------------------------------------------|



e|----------------------------------------------------|
B|----------------------------------------------------|
G|----------------------------------------------------|
D|----------------------------------------------------|
A|-2---3---4---2---3---4------------------------------|
E|---0---0---0---0---0--------------------------------|

e|--------------------------------------------|
B|--------------------------------------------|
G|--------------------------------------------|
D|--------------------------------------------|
A|--------------------------------------------|
E|-2-2-2-2-0-0-0-3-3-3-3-2-2-2-0--------------| 
 x2
 
e|--------------------------4-3-----------------------|\***/ (see below)
B|------------------4-3-0-3---------------------------|
G|----------------------------------------------------|
D|----------4-3-0-4-----------------------------------|
A|--4-3-0-4-------------------------------------------|
E|----------------------------------------------------|


The final strum at the end is an Am chord 
|-0-|
|-1-|
|-2-|
|-2-|
|-0-|
|-0-|

\***/ I am unsure whether this small sequence sounds quite right, but its reasonably accurate.
Tap to rate this tab
# A B C D E F G H I J K L M N O P Q R S T U V W X Y Z