Song name
# A B C D E F G H I J K L M N O P Q R S T U V W X Y Z

Monty Python - Knights Of The Round Table tab

Ok, so two things. One, this is my first tab, online anyway. I've had some experience,
I'm open to any comments. Second, these are the melody parts that transition the verses.
keep in mind I've only been playing for less than a year (the full year comes on the 
my birthday), so don't say "oh my God this is horrible." Ok, here we go!


EDIT: Chords used:

C:    G:    A:    B:    Bb:   G7:
|-0-| |-3-| |-0-| |-2-| |-1-| |-1-|
|-1-| |-0-| |-2-| |-4-| |-3-| |-0-|
|-0-| |-0-| |-2-| |-4-| |-3-| |-0-|
|-2-| |-0-| |-2-| |-4-| |-3-| |-0-|
|-3-| |-2-| |-0-| |-2-| |-1-| |-2-|
|---| |-3-| |---| |---| |---| |-3-|

F:    Am:   Dm:   Dm7:  E7:   D7:
|-1-| |-0-| |-1-| |-1-| |-0-| |-2-|
|-1-| |-1-| |-3-| |-1-| |-3-| |-1-|
|-2-| |-2-| |-2-| |-2-| |-1-| |-2-|
|-3-| |-2-| |-0-| |-0-| |-2-| |---|
|-0-| |-0-| |---| |---| |-2-| |---|
|---| |---| |---| |---| |-0-| |---|


Arthur, King of the Britains: Camelot!
Sir Galahad, The Pure: Camelot!
Sir Lancelot, The Brave: Camelot!
Patsy: It's Only a model...
Arthur, King of the Britons: Shh! Kinghts, I bid you welcome to your new home. Let us
to... Camelot!

Intro: (G G A Bb B)
   G7
|--3-3-5----|
|--------0-1|
|-----------|
|-----------|
|-----------|
|-----------|
|-----------|
     C
We're knights of the round table,

  G7              C
We dance whene'er able,

                   F
We do routines and chorus scenes,

    E7            Am
With footwork impec-cable,

   D7
We dine well here in Camelot,

   F       G7          C
We eat ham and jam and spam-a-lot!

Melody 1:
 C          G7   C                  D7      G7
|---------------|-------|-------|---------------|-2-3-5-2-7-|
|-1-0-----------|-------|-------|-1-0-----------|-----------|
|-----2-0-2-0---|-0-----|-2-0---|-----2-0-2-0---|-----------|
|-------------2-|---3-0-|-----2-|-------------2-|-----------|
|---------------|-------|-------|---------------|-----------|
|---------------|-------|-------|---------------|-----------|

      C
We're knights of the round table,

   G7                C
Our shows are for-mid-able,

                     F
But many times we're given rhymes,

    E7              Am
That are quite unsing-able!

     Dm7
We're opera-mad in Camelot,

       F        G7  C
We sing from the diaphragm a lot!

Melody 2 (basically the same as Melody 1 I guess)
 C         G7   C                  D7      G7
|---------------|-------|-------|---------------|-2-3-5-2-7-|
|-1-0-----------|-------|-------|-1-0-----------|-----------|
|-----2-0-2-0---|-0-----|-2-0---|-----2-0-2-0---|-----------|
|-------------2-|---3-0-|-----2-|-------------2-|-----------|
|---------------|-------|-------|---------------|-----------|
|---------------|-------|-------|---------------|-----------|

Dance Interlude (Rythym, No Lead)
 C   G7   C    C    F   G7   C

   C        G7         C
In war we're tough and able,

         G7    C
Quite inde-fati-gable,

                     F
Between our quests we sequin vests,

   E7                Am
And impersonate Clark Gable!

    Dm
It's a busy life in Camelot,

[Vocal Only, No Instruments]
I have to push the pram-a-lot!

Final, Outro Melody
 C         G7         C
|---------------|-----0--0-1-|
|-1-0-----------|-2-2--2-----|
|-----2-0-2-0---|------------|
|-------------2-|------------|
|---------------|------------|
|---------------|------------|

Arthur, King of the Britains: Oh, on second thought, let's not go to Camelot. Tis a
place...
Everyone Else: [murmuring] Alright.

Ok, hope you guys liked it. Leave a comment for any corrections and whatnot.
Tap to rate this tab
 
# A B C D E F G H I J K L M N O P Q R S T U V W X Y Z