Song name
# A B C D E F G H I J K L M N O P Q R S T U V W X Y Z

Moody Blues - Other Side Of Life tab

Artist: The Moody Blues
Song: "The Other Side of Life"

Solo starts at about 4'28"
----------------------------------------------15-14--------12-----------|
----------------------------15-15--15--15---12---------------15---------|
-12-14b16r14p12-14b16--14h16---------16-------------14-12---------------|
----------------------------------------------------------------14b16---|
------------------------------------------------------------------------|
------------------------------------------------------------------------|

4'38"
-15-17b19r17p15-17-19--17-19-22-22--22p19-22---|
-----------------------------------------------|
-----------------------------------------------|
-----------------------------------------------|
-----------------------------------------------|
-----------------------------------------------|

4'43"
---15--15-14--14-12--12---------------------|
-12--12-----12-----12---15p12h15-15b17~~~---|
--------------------------------------------|
--------------------------------------------|
--------------------------------------------|
--------------------------------------------|

This should be accurate. I hope it's of some use.

-KEW
Tap to rate this tab
 
# A B C D E F G H I J K L M N O P Q R S T U V W X Y Z