Song name
# A B C D E F G H I J K L M N O P Q R S T U V W X Y Z

Moody Blues - Tuesday Afternoon tab

Based off of the moody blues fingerings from their DVD
Regular tuning
The intro and outro are the same and use the A minor chord w/minor variations

  starting chord   
E----------------
B----1(pointer)--
G----2-(middle)--
D----3-(pinky)--- (I think this is the easiest way
A----3--(ring)---  to finger this chord if you want to play
E----1-(thumb)---  the song correctly and as written here)
                                      
-------------------------------- 
-1-1-1-1-1-1-1-1-1-1-1-1-1-1-1-1
-2-2-2-2-2-2-2-2-2-2-2-0-0-0-0-0 
-3-3-3-3-3-3-3-3-3-3-3-3-3-3-3-3 
-3-3-3-3-3-3-3-3-3-3-3-3-3-3-3-3 
-1-1-1-1-1-1-1-1-1-1-1-1-1-1-1-1 
 Tuesday------------->  
 Afternoon----------->

-0-0-0-0-0-1-1-1-1-1-1-----0-0-0-0-0-------2-2-2-0-2-2-2-2-2-0-2
-1-1-1-1-1-3-3-3-3-3-3-----1-1-1-1-1-------3-3-3-3-3-3-3-3-3-3-3
-0-0-0-0-0-3-3-3-3-3-3-----2-2-2-2-2-------2-2-2-2-2-2-2-2-2-2-2
-2-2-2-2-2-0-0-0-0-0-0-----2-2-2-2-2-------0-0-0-0-0-0-0-0-0-0-0
-3-3-3-3-3-1-1-1-1-1-1-----0-0-0-0-0-------0-0-0-0-0-0-0-0-0-0-0
-3-3-3-3-3-1-1-1-1-1-1------------------------------------------
I'm just beginning to see, now I'm on my   way
It doesn't matter to me chasing the clouds away

(the strumming is pretty much straight but I added spaces
between the chords so you could see where the chords change in 
relation to the words.) 

-------------------------------- 
-1-1-1-1-1-1-1-1-1-1-1-1-1-1-1-1
-2-2-2-2-2-2-2-2-2-2-2-0-0-0-0-0 
-3-3-3-3-3-3-3-3-3-3-3-3-3-3-3-3 
-3-3-3-3-3-3-3-3-3-3-3-3-3-3-3-3 
-1-1-1-1-1-1-1-1-1-1-1-1-1-1-1-1 
 Something------------>
 Calls to me---------->

-0-0-0-0-0----1-1-1-1-1-1------0-0-0-0-0-----------2-2-2-0-2-2-2-2-2-0-2
-1-1-1-1-1----3-3-3-3-3-3------1-1-1-1-1-----------3-3-3-3-3-3-3-3-3-3-3
-0-0-0-0-0----3-3-3-3-3-3------2-2-2-2-2-----------2-2-2-2-2-2-2-2-2-2-2
-2-2-2-2-2----0-0-0-0-0-0------2-2-2-2-2-----------0-0-0-0-0-0-0-0-0-0-0
-3-3-3-3-3----1-1-1-1-1-1------0-0-0-0-0-----------0-0-0-0-0-0-0-0-0-0-0
-3-3-3-3-3----1-1-1-1-1-1-----------------------------------------------
The trees are drawing me near I've got to find out why 
Those gentle voices are here   explaining it all with a sigh----------->

------------------------------------
-4---/---5---/---4---/---3-3-3-3-1-1
-5---/---6---/---5---/---4-4-4-4-2-0
-6---/---7---/---6---/---5-5-5-5-3-2
-6---/---7---/---6---/---5-5-5-5-3-3
-4---/---5---/---4---/---3-3-3-3-1-3
Sigh---------------------------->

----------------------------------
-3-3-3-3-1-1-----------3-3-3-3-1-1
-4-4-4-4-2-0-----------4-4-4-4-2-0
-5-5-5-5-3-2-----------5-5-5-5-3-2
-5-5-5-5-3-3-----------5-5-5-5-3-3
-3-3-3-3-1-3-----------3-3-3-3-1-3  
I'm looking at my self reflections of my mind 
It's just the perfect day to leave myself behind
so gently swaying through the fairy land of love
just come with me and then you'll see the beauty of...

----------------------------------------------------2---
-1------1-----3-3-3-3-1-1-3-3-3-3-1-1-----1----1----3---
-2------0-----4-4-4-4-2-0-4-4-4-4-2-0-----2----0----2---
-3------2-----5-5-5-5-3-2-5-5-5-5-3-2-----3----2----0---
-3------3-----5-5-5-5-3-3-5-5-5-5-3-3-----3----3----0---
-1------3-----3-3-3-3-1-3-3-3-3-3-1-3-----1----3--------
tuesday after noon------->             tuesday afternoon
Tap to rate this tab
 
# A B C D E F G H I J K L M N O P Q R S T U V W X Y Z