Song name
# A B C D E F G H I J K L M N O P Q R S T U V W X Y Z

Moody Blues - You And Me tab

This is the basic intro, and as far as I can tell to play 
the higher parts you just follow the same pattern 7 frets 
up. Play the whole intro here twice. The second time thru
there are some fancy hammers but I was too lazy to tab 
them, and this is basically what it is. Enjoy


E|------------------------------|
B|------------------------------|
G|------------------------------|
D|-----------0------------------|
A|-------2------2--4--0--2------|
E|-0-4--------------------------|   X2

E|---------------------------------------------|
B|---------------------------------------------|
G|---------------------------------------------|
D|-----------0---------------------------------|
A|-------2------2--4--0--2-------0-------2-----|
E|-0-4-----------------------4--------2--------|	

E|-------------------------------------|
B|-------------------------------------|
G|-------------------------------------|
D|-------------2--------1--------------|
A|-----0--4--------4-------2----0------|
E|-2-----------------------------------|   X2

E|-----------------------------------------------------|
B|-----------------------------------------------------|
G|-----------------------------------------------------|
D|-------------2--------1------------------------------|
A|-----0--4--------4-------2----0----------0s4--2------|
E|-2-----------------------------------2---------------|

e|---------------------------------------|
B|---------------------------------------|
G|-----------------2------1--------------|
D|-------1---4-------4-------2---4-------|
A|--2------------------------------------|
E|---------------------------------------|   X2

e|--------------------------------------------------|
B|--------------------------------------------------|
G|-----------------2------1-------------------------|
D|-------1---4-------4-------2---4----1---2---------|
A|--2-----------------------------------------4---2-|
E|--------------------------------------------------|

MAD HATTER
Tap to rate this tab
 
# A B C D E F G H I J K L M N O P Q R S T U V W X Y Z