Song name
# A B C D E F G H I J K L M N O P Q R S T U V W X Y Z

Moody Blues - Ride My See-saw chords

Highlighted       Show chord diagrams
Moody Blues - Ride My See Saw

compiled from other sources & lead solo tabbed by -=blackbeard=-

C-F*:
      C      F        C      F
e--------------------------------------|
b------------6-5-6-5---------6-5-5h6-5-|
g-----5-5----5-5-5-5--5-5----5-5-5---5-|
d-----5-5-------------5-5--------------|
a-----3-3-------------3-3--------------|
E--------------------------------------|

C-C*:
  C C                  C C
e--------------------------  e--------------------------|
b--------------------------  b--------------------------|
g-5-5----2p0-----------5-5-  g---------------------5-5--|
d-5-5--------2p0-------5-5-  d-----------------0---5-5--|
a-3-3-------------3-1--3-3-  a-----------0-1-3---1-3-3--|
e--------------------------  e---0-1-2-3----------------|
Repeat this 3 times, then:    This one once.

 
C-F* intro (2x)

C (x355xx)
Ride, ride my see-saw, 
          Bb (x133xx)                 C-F* 
Take this place on this trip just for me 
C
Ride, take a free ride,
        Bb                           C-F* 
Take my place, have my seat it's for free. 
 
  Bb            F (xx356x)    C 
I worked like a slave   for   years, 
         Bb           F      C 
Sweat so hard just to end my fears, 
       Bb     F           C 
Not to end my life a poor man 
       Bb                         C-C* 
But by now, I know, I should have run. 
 
C 
Run, run my last race, 
        Bb                         C-F*
Take my place, have this number of mine. 
C 
Run, run like a fire, 
              Bb
Don't you run in, in the lanes, run for
  C-F*
time.  
     Bb            F           C 
Left school with a first class pass, 
        Bb           F      C 
Started work, but as second class,
       Bb             F      C 
School taught one and one is two, 
Bb                                  Dm 
But by now, that answer, just ain't true. 

Repeat 2x:
  Dm      Bb      F       C
  Ahhh... Ahhh... Ahhh... Ahhh...

  Dm      Bb      F       C
  Ahhh... Ahhh... Ahhh... Ahhh...

  Dm      Bb      Dm      F       C
  Ahhh... Ahhh... Ahhh... Ahhh... Ahhh... 

Lead Solo
 
C  Bb       F         C     (Riff B)
My world is spinning around, 
      Bb       F           C (Riff C)
Every-thing is lost that I found 
       Bb        F         C 
People run, come ride with me, 
      Bb                           C-F*                               
Let's find another place that's free. ?
C 
Ride, ride my see-saw, 
          Bb                          C 
Take this place on this trip just for me 
C
Ride, take a free ride,
        Bb                           C 
Take my place, have my seat it's for free. 
C   Bb  F  Bb      C   Bb  F  Bb      
Ride...      my see saw,
C   Bb  F  C  Bb    C    Bb  F  Bb      
Ride...         ride... ride
C   Bb  F  Bb      C   Bb  F  Bb      
Ride...      my see saw,
C   Bb  F  C  Bb    C    Bb  F  Bb      
Ride...         ride... ride
 

Lead Solo Tab

e---------------------------------------------------------------|
b---------------------------------------------------------------|
g---5-7-7b9---7-5h7p5---5---------------------------------------|
d-5-------------------8---8-7-----8-7---------------------------|
a-------------------------------------8-8s10~~~-----------------|
E---------------------------------------------------------------|
                                            (X2)

e---------------------------------------------------------------|
b---------------------------------------------------------------|
g---------------------------------------------------------------|
d-----5-7-5h7p5---5---------------------------------------------|
a-7-8-----------8---8-7-5-p0-1s3~--3~~~-------------------------|
E---------------------------------------------------------------|

e---------------------------------------------------------------|
b---------------------------------------------------------------|
g-9-10-12-10h12p10p9~~~----10-9-7-9~~~--------------------------|
d---------------------------------------------------------------|
a---------------------------------------------------------------|
E---------------------------------------------------------------|

e-9-10-12-10h12p10p9----10-9-7-7h9p7-5------7-5h7p5-3-5~~~------|
b---------------------------------------------------------------|
g---------------------------------------------------------------|
d---------------------------------------------------------------|
a---------------------------------------------------------------|
E---------------------------------------------------------------|

       Riff A             Riff B              Riff C
e-------------------------8-------8-----------13b15-11----------|
b---------------------------11b13---11b13--------------13-------|
g-5-------------8b9---------------------------------------------|
d-5--------8-10-------------------------------------------------|
a-3----s10------------------------------------------------------|
E---------------------------------------------------------------|
Tap to rate this tab
# A B C D E F G H I J K L M N O P Q R S T U V W X Y Z