Song name
# A B C D E F G H I J K L M N O P Q R S T U V W X Y Z

Moody Blues - Lovely To See You chords

Highlighted       Show chord diagrams
Moody Blues - Lovely To See You

Cleaned up, corrected and finished by -=blackbeard=-

Intro:
E--------------------------------------------------7~~~-s9-12-12-9-12-9s0--|
B--------------------------------------------------------------------------|
G-----------------7-6-4-4-2-1~~~-12-11-9-9-7-4~~~--------------------------|
D--------------------------------------------------------------------------|
A-------2-4-2--------------------------------------------------------------|
E-0-0-4-------4-0----------------------------------------------------------|

Verse 1:

E                    A        E  
Wonderful day for passing my way,
E                      A        E                A A
Knock on my door and even the score with your eyes.
A          D         A          E
Lovely to see you again my friend,
A A          D      A           E
Walk along with me to the next bend.

[Play Intro]

Verse 2:

Dark cloud of fear is blowing away,
Now that you're here you going to stay 'cause it's
Lovely to see you again my friend,
Walk along with me to the next bend.

Bridge [barre F G and A]
F                   G       F           G
Tell us what you've seen in far away forgotten lands,
F                  G              A
Where empires have turned back to sand.

[Play Intro]

[Repeat Verse 1]

Outro:
E-------------------------------------------------------------|
B-------------------------------------------------------------|
G---------------------------2~~-------------------------------|
D---------------------2-4-2-------------------------2-4-2-----|
A-------2-4-2---0-0-4-----------------2-4-2---0-0-4-------4-0-|

E---7-7---7------9-12-12-9-12-9-|
B-9-----9---9-------------------|
G-------------------------------|
D-------------------------------|
A-------------------------------|
E-------------------------------|
Tap to rate this tab
 
# A B C D E F G H I J K L M N O P Q R S T U V W X Y Z