Song name
# A B C D E F G H I J K L M N O P Q R S T U V W X Y Z

Moody Blues - English Sunset tab

		     English Sunset(solos only) - Moody Blues
-------------------------------------------------------------------------------
Tabbed by:cheez
Email:

Tuning:
   Middle solo
e|-----------------0---------------------------------------------------------|
B|------2--0--2-3-----0-----1--0--1--0---------------------------------------|
G|---2----------------------------------2------------------------------------|
D|-2-------------------------------------------------------------------------|
A|---------------------------------------------------------------------------|
E|---------------------------------------------------------------------------|


e|-----------9---9---11---------------------5--------------------------------|
B|-------5---------------------6---5--7--------------------------------------|
G|-5--7-------------------8-7------------6------5--2---0-0-2-0---2-----4--7--|
D|-------------------------------------------------------------5-------------|
A|---------------------------------------------------------------------------|
E|---------------------------------------------------------------------------|

e|-------5---------------------------------------------3----1----------------|
B|-5-------5------5----------5----5----------5------5----3----0----------5-6-|
G|----7--------7-----7---4-5----5-----2--4-5----4-5-------------2---4--7-----|
D|---------------------------------------------------------------------------|
A|---------------------------------------------------------------------------|
E|---------------------------------------------------------------------------|

e|----0--0---0--0--0--0--0--0--0--0--0--0--0--0------------------------------|
B|-7--9--11--13-13-13-13-13-13-15-15-15-15-15-17-----------------------------|
G|---------------------------------------------------------------------------|
D|---------------------------------------------------------------------------|
A|---------------------------------------------------------------------------|
E|---------------------------------------------------------------------------|
Tap to rate this tab
# A B C D E F G H I J K L M N O P Q R S T U V W X Y Z