Song name
# A B C D E F G H I J K L M N O P Q R S T U V W X Y Z

Moody Blues - Lovely To See You tab

Sorry about my other version of this song i went over it and it sucked so i made another
one that sounds more genuine.
Intro:
E--------------------------------------------------------
B--------------------------------------------------------
G-----------------7-6-4-2-1-9-12-11-9-7-6)-4/7-7-7-4-7-4- A
D--------------------------------------------------------
A-------2-4-2--------------------------------------------
E-0-0-4-------4-0----------------------------------------
Verse I:
E                    A        E  
Wonderful day for passing my way,
E                      A        E                A A
Knock on my door and even the score with your eyes.
A          D         A          E
Lovely to see you again my friend,
A A          D      A           E
walk along with me to the next been.

This dark cloud of fear is blowing away,
Now that you're here you going to stay 'cause it's
Lovely to see you again my friend,
walk along with me to the next been.

Bridge:
F                  G      F        G
Tell us what you see in far away forgotten lands,
F                     G             A
Where empires have turned back to sand.
Solo:
(Repeat main riff)
E-
G-6-9-9-9-6-9-6/6-9-9-9-6-9-13/13-11-11-6-/6-6-4-4-4-4-4-6-9-9
(Check recording for rhythm)
Play barre6 F G and A on bridge like this:
F     G      A
E-1---/3---/5-
B-1---/3---/5-
G-2---/4---/6-
D-3---/5---/7-
A-3---/5---/7-
E-
Tap to rate this tab
 
# A B C D E F G H I J K L M N O P Q R S T U V W X Y Z