Song name
# A B C D E F G H I J K L M N O P Q R S T U V W X Y Z

Moody Blues - English Sunset Acoustic tab

i saw him play this acoustically once. he played it a little differently than the album.
its basically chords, just strumming in the right places. A Asus2 Asus4 F and G are
all thats used. the rest of the song plays the same as the album version.


e-------------------------0-----1------------------------------------------------------|
B------------2--0----2-3----0---1--0--1--0---------------------------------------------|
G---------2---------------------2-----------2-------X2---------------------------------|
D------2------------------------3------------------------------------------------------|
A-------------------------------3------------------------------------------------------|
E--------------------------------------------------------------------------------------|

                              (Asus4)              (F)                                   (G)
         (A)    (Asus2)
----------------------0-------1---0---1--0---1-----3------------------------------------|
---2-2-2---0---2--3---0--0----1---0---1--0---1-----0------------------------------------|
---2-2-2---2---2--2---2--2----2---2---2--2---2-----0------------------------------------|
---2-2-2---2---2--2------2----3---3---3--3---3-----0------------------------------------|
---0-0-0---0---0--0-----------3--------------------2------------------------------------|
---------------------------------------------------3------------------------------------|
Tap to rate this tab
 
# A B C D E F G H I J K L M N O P Q R S T U V W X Y Z