Guitaretab - guitar tabs
Song name
# A B C D E F G H I J K L M N O P Q R S T U V W X Y Z

Mooi Wark - Idioot tab

 E-A-D-G-B-e
A = x-0-2-2-2-0
E = 0-2-2-1-0-0
D = x-x-0-2-3-2


4 x refrein
E|---------------------------------------------------|
B|-/-2-2-2-2-2-------------------------2-----2-------|
G|-------------4-2---------/-22-4-4-4---4-2---4-----|
D|-----------------2-2-2-2---------------------------|
A|---------------------------------------------------|
E|---------------------------------------------------|


A               E		D           
E|----------|  |-----------|  |---------|
B|----------|  |-----------|  |-2-2-4-4-|
G|----------|  |-----------|  |-0-0-0-0-|  
D|-2-2-4-4--|  |-----------|  |---------|  
A|-0-0-0-0--|  |-2-2-4-4---|  |---------|  
E|----------|  |-0-0-0-0---|  |---------|  


Couplet:
A
as ik an het stappen goa
			E
dan giet het altied mis

mien kuif die zit vol met vet
				A
en mien vlinder stinkt noar vis

en as ik op een meid afstap 
				    D
doe ik net net of ik heur joaren ken
			A					
ie springt dan uut de hooste boom 
E                         A
en denkt dat ie grappig bent
[ Tab from: http://www.guitaretab.com/m/mooi-wark/86534.html ]
Refrein:
A
En zij zegt i-i-i-i-idioot
E      A
idioot idioooot
A              E         A     E A
i-i-i-i-idioot idioot en idiot

Brug:
E|-----0-0-----0-0--|
B|-/-2-----/-2------|
G|------------------|
D|------------------|
A|------------------|
E|------------------|

 A
's zomers zitten op een terras
                     E
das wak et liefste doe

dan hap ik fijn mien pilsjes weg
                       A        
dat gef zo'n fijn gevuul

en lop er dan een meid voorbij
                          D 
dan week niet wak mot doen
                     A
dan sta ik op en schreew ik toe
E                          A 
WIL IE MIEN LOLLIE OF EEN ZOEN
 
Refrein:
A
En zij zegt i-i-i-i-idioot
E      A
idioot idioooot
A              E         A          E  A
i-i-i-i-idioot idioot en idiot


A
meloenen, meloenen meloenen(4x)

4 x refrein
E|---------------------------------------------------|
B|-/-2-2-2-2-2-------------------------2-----2-------|
G|-------------4-2---------/-22-4-4-4---4-2---4-----|
D|-----------------2-2-2-2---------------------------|
A|---------------------------------------------------|
E|---------------------------------------------------|


i-i-i-i-idioot idioot en idioot(2x)

Related for Idioot tab