Song name
# A B C D E F G H I J K L M N O P Q R S T U V W X Y Z

Moon Martin - Bad News tab

www.moonmartin.com

     E  Q    E  Q    E  E      E   E  E   E   H
E||-----8------------------|---------------------------|
B||----------9--6-------6--|---------------------------|
G||------------------8-----|--10--10--8--10--10--------|
D||------------------------|---------------------------|
A||------------------------|---------------------------|
E||------------------------|---------------------------|


  E  Q    E   Q    E   E      E   E  E   E   H
-----8--------------------|---------------------------|
----------9---------------|---------------------------|
-------------10----8--10--|--10--10--8--10--10--------|
--------------------------|---------------------------|
--------------------------|---------------------------|
--------------------------|---------------------------|


  E  Q    E   Q    E   E      E   E  E   E   H
-----8--------------------|---------------------------|
----------9---------------|---------------------------|
-------------10----8--10--|--10--10--8--10--10--------|
--------------------------|---------------------------|
--------------------------|---------------------------|
--------------------------|---------------------------|


  E  Q    E   Q    E   E      E   E  E   E   H           E  Q    E  Q    E  E
-----8--------------------|---------------------------|-----8-------6-------6--|
----------9---------------|---------------------------|----------9-------9-----|
-------------10----8--10--|--10--10--8--10--10--------|------------------------|
--------------------------|---------------------------|------------------------|
--------------------------|---------------------------|------------------------|
--------------------------|---------------------------|------------------------|


  E  E  E  E  H           E  Q    E  Q    E  E      E   E  E   E   H
--6--6-----6--6--------|-----8------------------|---------------------------|
--------9--------------|----------9--6-------6--|---------------------------|
-----------------------|------------------8-----|--10--10--8--10--10--------|
-----------------------|------------------------|---------------------------|
-----------------------|------------------------|---------------------------|
-----------------------|------------------------|---------------------------|


  E  Q    E  Q    E  E      E   E  E   E   H           E  Q    E  Q    E  E
-----8------------------|---------------------------|-----8------------------|
----------9--6-------6--|---------------------------|----------9--6-------6--|
------------------8-----|--10--10--8--10--10--------|------------------8-----|
------------------------|---------------------------|------------------------|
------------------------|---------------------------|------------------------|
------------------------|---------------------------|------------------------|


   E   E  E   E   H           E  Q    E  Q    E  E
---------------------------|-----8------------------|
---------------------------|----------9--6-------6--|
--10--10--8--10--10--------|------------------8-----|
---------------------------|------------------------|
---------------------------|------------------------|
---------------------------|------------------------|


   E   E  E   E   H           E  Q    E  Q    E  E
---------------------------|-----8------------------|
---------------------------|----------9--6-------6--|
--10--10--8--10--10--------|------------------8-----|
---------------------------|------------------------|
---------------------------|------------------------|
---------------------------|------------------------|


   E   E  E   E   H           E  Q    E  Q    E  E     E  E  E  E  H
---------------------------|-----8-------6-------6--|--6--6-----6--6--------|
---------------------------|----------9-------9-----|--------9--------------|
--10--10--8--10--10--------|------------------------|-----------------------|
---------------------------|------------------------|-----------------------|
---------------------------|------------------------|-----------------------|
---------------------------|------------------------|-----------------------|


  E  Q.     E   Q.        E  Q.     E   Q.
-----------------------|-----------------------||
-----9-----------------|-----------------------||
---------------10------|-----8-----------------||
-----------------------|---------------10------||
-----------------------|-----------------------||
-----------------------|-----------------------||


Duration Legend
---------------
W - whole
H - half
Q - quarter
E - 8th
S - 16th
T - 32nd
X - 64th
. - note dotted
|-n-|  - n-tuplets


Tablature Legend
----------------
L - tied note
x - dead note
g - grace note
(n) - ghost note
> - accentuded note
NH - natural harmonic
AH - artificial harmonic
TH - tapped harmonic
SH - semi harmonic
PH - pitch harmonic
h - hammer on
p - pull off
b - bend
br - bendRelease
pb - preBend
pbr - preBendRelease
brb - bendReleaseBend
\n/ - tremolo bar dip
\n - tremolo bar dive
-/n - tremolo bar Release up
/n\ - tremolo bar inverted dip
/n - tremolo bar return
-\n - tremolo bar Release down
S - shift slide
s - legato slide
/ -  slide into from below or out of upwards
\ -  slide into from above or out of downwards
~ - vibrato
W - wide vibrato
tr - trill
TP - tremolo picking
T - tapping
S - slap
P - pop
< - fade in
^ - brush up
v - brush down
Tap to rate this tab
# A B C D E F G H I J K L M N O P Q R S T U V W X Y Z