Song name
# A B C D E F G H I J K L M N O P Q R S T U V W X Y Z

Moonblood - Under The Abyssic Black Wings Of The Third Antichrist tab

Moonblood - 03 - Under The Abyssic Black Wings Of The Third Antichrist
Album:  [1996] Unpure Desires Of Diabolical Lust (Rehearsal)

RIFF1
                     |--3--|          |--3--|  |--3--|                          
      Q    Q    Q    E  E  E     Q    E  E  E  E  E  E  Q     4x                
E||---------------------------|-------------------------------|
B||---------------------------|-------------------------------|
G||*--------------------------|------------------------------*|
D||*-------6----6----4--6--7--|--6----7--6--4----------------*|
A||---------------------------|----------------7--6--4--------|
E||---4-----------------------|-------------------------7-----|


RIFF2
                                   |--3--|                    |--3--|   
                    Q    Q    Q    E  E  E     Q    Q    Q    E  E  E   
-------|-------||---------------------------|--------------------------|
-------|-------||---------------------------|--------------------------|
-------|-------||*--------------------------|--------------------------|
-------|-------||*--6----6----6----4--6--7--|--6----6----6----4--6--7--|
-------|-------||---4----4----4-------------|--4----4----4-------------|
-------|-------||---------------------------|--------------------------|


                 |--3--|          |--3--|  |--3--|          
  Q    Q    Q    E  E  E     Q    E  E  E  E  E  E  Q       
--------------------------|-------------------------------||
--------------------------|-------------------------------||
--------------------------|------------------------------*||
--6----6----6----4--6--7--|--6----7--6--4----------------*||
--4----4----4-------------|----------------7--6--4--------||
--------------------------|-------------------------7-----||


RIFF3

   |--3--|  |--3--|  |--3--|  |--3--|     |--3--|  |--3--|                
   E  E  E  E  E  E  E  E  E  E  E  E     E  E  E  E  E  E  E.  E.  E     
---------------------------------------|--------------------------------||
---------------------------------------|--------------------------------||
*--------------------------------------|-------------------------------*||
*--------------------------------------|--------------------6---6---6--*||
---6--6--6--6--6--6--6--6--6--6--6--6--|--6--6--6--6--6--6--4---4---4---||
---4--4--4--4--4--4--4--4--4--4--4--4--|--4--4--4--4--4--4--------------||




Duration Legend
---------------
W - whole
H - half
Q - quarter
E - 8th
S - 16th
T - 32nd
X - 64th
. - note dotted
|-n-|  - n-tuplets
Tap to rate this tab
# A B C D E F G H I J K L M N O P Q R S T U V W X Y Z