Song name
# A B C D E F G H I J K L M N O P Q R S T U V W X Y Z

Moonblood - Eternal Satanic Winter tab

Moonblood - Eternal satanic winter
album: moonblood (1994)

     Q    Q    Q    Q       Q    Q    Q    Q       Q    Q    Q    Q     
E||----------------------|----------------------|----------------------|
B||----------------------|----------------------|----------------------|
G||----------------------|----------------------|----------------------|
D||----------------------|----------------------|----------------------|
A||--6---------6---------|--6---------6----8----|--9---------9---------|
E||--4----4----4----4----|--4----4----4----6----|--7----7----7----7----|


  Q    Q    Q     Q       Q    Q    Q    Q       Q    Q    Q    Q     
-----------------------|----------------------|----------------------|
-----------------------|----------------------|----------------------|
-----------------------|----------------------|----------------------|
-----------------------|----------------------|----------------------|
--9---------9----11----|--6---------6---------|--6---------6----8----|
--7----7----7-----9----|--4----4----4----4----|--4----4----4----6----|


  Q    Q    Q    Q       Q    Q    Q     Q       Q    Q    Q    Q     
----------------------|-----------------------|----------------------|
----------------------|-----------------------|----------------------|
----------------------|-----------------------|----------------------|
----------------------|-----------------------|----------------------|
--9---------9---------|--9---------9----11----|--6---------6---------|
--7----7----7----7----|--7----7----7-----9----|--4----4----4----4----|


  Q    Q    Q    Q       Q    Q    Q    Q       Q    Q    Q     Q     
----------------------|----------------------|-----------------------|
----------------------|----------------------|-----------------------|
----------------------|----------------------|-----------------------|
----------------------|----------------------|-----------------------|
--6---------6----8----|--9---------9---------|--9---------9----11----|
--4----4----4----6----|--7----7----7----7----|--7----7----7-----9----|


  Q    Q    Q    Q       Q    Q    Q    Q       Q    Q    Q    Q     
----------------------|----------------------|----------------------|
----------------------|----------------------|----------------------|
----------------------|----------------------|----------------------|
----------------------|----------------------|----------------------|
--6---------6---------|--6---------6----8----|--9---------9---------|
--4----4----4----4----|--4----4----4----6----|--7----7----7----7----|


  Q    Q    Q     Q      
-----------------------||
-----------------------||
-----------------------||
-----------------------||
--9---------9----11----||
--7----7----7-----9----||


Tap to rate this tab
# A B C D E F G H I J K L M N O P Q R S T U V W X Y Z