Song name
# A B C D E F G H I J K L M N O P Q R S T U V W X Y Z

Moonblood - Templers Penitence tab

Templers Penitence                                                                       
                             Moonblood [Ger] [1999] Rehersal 13


      S S S S S S S S S S S S S S S S    S S S S S S S S S S S S S S S S
E||-----------------------------------|----------------------------------|
B||-----------------------------------|----------------------------------|
G||*----------------------------------|----------------------------------|
D||*----------------------------------|----------------------------------|
A||-----------------------------------|----------------------------------|
E||---6-6-6-6-6-6-6-6-6-6-6-6-6-6-6-6-|--9-9-9-9-9-9-9-9-9-9-9-9-9-9-9-9-|


  S S S S S S S S S S S S S S S S    S S S S S S S S S S S S S S S S
----------------------------------|----------------------------------|
----------------------------------|----------------------------------|
----------------------------------|----------------------------------|
----------------------------------|----------------------------------|
----------------------------------|----------------------------------|
--6-6-6-6-6-6-6-6-6-6-6-6-6-6-6-6-|--9-9-9-9-9-9-9-9-9-9-9-9-9-9-9-9-|


  S S S S S S S S S S S S S S S S    S S S S S S S S S S S S S S S S
----------------------------------|----------------------------------|
----------------------------------|----------------------------------|
----------------------------------|----------------------------------|
----------------------------------|----------------------------------|
----------------------------------|----------------------------------|
--5-5-5-5-5-5-5-5-5-5-5-5-5-5-5-5-|--8-8-8-8-8-8-8-8-8-8-8-8-8-8-8-8-|


  S S S S S S S S S S S S S S S S    S S S S S S S S S S S S S S S S
----------------------------------|-----------------------------------||
----------------------------------|-----------------------------------||
----------------------------------|----------------------------------*||
----------------------------------|----------------------------------*||
----------------------------------|-----------------------------------||
--5-5-5-5-5-5-5-5-5-5-5-5-5-5-5-5-|--8-8-8-8-8-8-8-8-8-8-8-8-8-8-8-8--||


   S S S S S S S S S S S S S S S S    S S S S S S S S S S S S S S S S
-----------------------------------|----------------------------------|
-----------------------------------|----------------------------------|
*----------------------------------|----------------------------------|
*----------------------------------|----------------------------------|
-----------------------------------|----------------------------------|
---6-6-6-6-6-6-6-6-6-6-6-6-6-6-6-6-|--9-9-9-9-9-9-9-9-9-9-9-9-9-9-9-9-|


  S S S S S S S S S S S S S S S S    S S S S S S S S S S S S  S  S  S  S
----------------------------------|--------------------------------------|
----------------------------------|--------------------------------------|
----------------------------------|--------------------------------------|
----------------------------------|--------------------------------------|
----------------------------------|--------------------------------------|
--6-6-6-6-6-6-6-6-6-6-6-6-6-6-6-6-|--9-9-9-9-9-9-9-9-9-9-9-9-12-12-12-12-|


  S S S S S S S S S S S S S S S S    S S S S S S S S S S S S S S S S
----------------------------------|----------------------------------|
----------------------------------|----------------------------------|
----------------------------------|----------------------------------|
----------------------------------|----------------------------------|
----------------------------------|----------------------------------|
--5-5-5-5-5-5-5-5-5-5-5-5-5-5-5-5-|--8-8-8-8-8-8-8-8-8-8-8-8-8-8-8-8-|


  S S S S S S S S S S S S S S S S    S S S S S S S S S S S S  S  S  S  S
----------------------------------|---------------------------------------||
----------------------------------|---------------------------------------||
----------------------------------|--------------------------------------*||
----------------------------------|--------------------------------------*||
----------------------------------|---------------------------------------||
--5-5-5-5-5-5-5-5-5-5-5-5-5-5-5-5-|--8-8-8-8-8-8-8-8-8-8-8-8-11-11-11-11--||


Duration Legend
---------------
W - whole
H - half
Q - quarter
E - 8th
S - 16th
T - 32nd
X - 64th
. - note dotted
|-n-|  - n-tuplets


Tablature Legend
----------------
L - tied note
x - dead note
g - grace note
(n) - ghost note
> - accentuded note
NH - natural harmonic
AH - artificial harmonic
TH - tapped harmonic
SH - semi harmonic
PH - pitch harmonic
h - hammer on
p - pull off
b - bend
br - bendRelease
pb - preBend
pbr - preBendRelease
brb - bendReleaseBend
\n/ - tremolo bar dip
\n - tremolo bar dive
-/n - tremolo bar Release up
/n\ - tremolo bar inverted dip
/n - tremolo bar return
-\n - tremolo bar Release down
S - shift slide
s - legato slide
/ -  slide into from below or out of upwards
\ -  slide into from above or out of downwards
~ - vibrato
W - wide vibrato
tr - trill
TP - tremolo picking
T - tapping
S - slap
P - pop
< - fade in
^ - brush up
v - brush down
Tap to rate this tab
# A B C D E F G H I J K L M N O P Q R S T U V W X Y Z