Song name
# A B C D E F G H I J K L M N O P Q R S T U V W X Y Z

Moonblood - Under The Cold Fullmoon tab

Moonblood (GER)
Song: under the cold fullmoon
Album: Blut und krieg


Intro is played with these chords:

     B5                   C5                                                                        
E||-------------------|--------------------|-------------------|
B||-------------------|--------------------|-------------------|
G||-------------------|--------------------|-------------------|
D||--9----------------|--10----------------|-------------------|
A||--9----------------|--10----------------|-------------------|
E||--7----------------|---8----------------|-------------------|



Verse1 is played with these chords:

  B5        C5          B5        D5                
---------------------|---------------------||
---------------------|---------------------||
---------------------|---------------------||
--9--------10--------|--9--------12--------||
--9--------10--------|--9--------12--------||
--7---------8--------|--7--------10--------||
Tap to rate this tab
# A B C D E F G H I J K L M N O P Q R S T U V W X Y Z