Song name
# A B C D E F G H I J K L M N O P Q R S T U V W X Y Z

Moondust - Our Fantasies chords

Verse

e------------------------------------------------------------|
b------------------------------------------------------------|
g-----------------------------------------------6-6----------|
d---3----3--3-3-3-3---3--3-3-3-3---3--3-3-3-3---6-6--6--4----|   repeat 5 time
a---3----3--3-3-3-3---3--3-3-3-3---3--3-3-3-3---4-4--6--4----|
e---1----1--x-1-x-1---1--x-1-x-1---1--x-1-x-1--------4--2----|


chorus

-------------------------------------------------|
-------------------------------------------------|
----10-10-1010--8-88888888-----------------------|
----10-10-1010--8-88888888-----------------------|
----8--8--8888--6-88888888-----------------------|
-------------------------------------------------|
Tap to rate this tab
# A B C D E F G H I J K L M N O P Q R S T U V W X Y Z