Song name
# A B C D E F G H I J K L M N O P Q R S T U V W X Y Z

Mooney Suzuki - 99 tab

99%
Mooney Suzuki
EADGbe

Intro                                then C
e]--------------------------------------------------------------------------|
b]---------------------------x4---------------------------------------------|
g]--8--5---8-7-5---2-5-3-8-5--------5-5-x-5-5-x-5-5-x-5---------------5-----|
d]--8--5---8-7-5---2-5-3-8-5--------5-5-x-5-5-x-5-5-x-5-------0-3-----5-----|
a]----------------------------------3-3-x-3-3-x-3-3-x-3-----1---------3-----|
e]----------------------------------------------------------------1---------|

verse 1 & 2
e]--x-8--x-8------------------------x-8--x-8--------------------------------|
b]--x-8--x-8------------------------x-8--x-8--------------------------------|
g]----------------------------------------------2-5-----7-10*---------------|
d]--------------------------------------------3------/8---------------------|
a]----------------0-3------5-8----------------------------------------------|
e]--------------1-------/6--------------------------------------------------|

chorus     			 repeat this part X2	(1st ending)
e]--------------------------------------------------------------------------|
b]--------------------x3----------------------------------------------------|
g]------------3-----5-----5--7----------------------------------------------|
d]---0-3------3--3--5-----5--7---8--10--8------------10--12--10-------------|
a]-1----------1--3--3-----3--5---6--6---6--8--10--8--8---8---8---10--12--10-|
e]-------1-------1-------------------------6--6---6--------------8---8---8--|

   (2nd ending)
e]------------8-------------------------------------------------------------|
b]--------------------------------------------------------------------------|
g]-----6--/8----------------------------------------------------------------|
d]-3------------------------------------------------------------------------|
a]-3------------------------------------------------------------------------|
e]-1------------------------------------------------------------------------|

Back to intro & verse 2 (same as the 1st)

chorus

solo
e]------------------15-------13-13----------------------------15-17^19-15---|
b]-15p-13-----------------13-------13\-------15p-13-------------------------|
g]--------12--14/16--------------------/10----------12--14/16---------------|
d]--------------------------------------------------------------------------|
a]--------------------------------------------------------------------------|
e]--------------------------------------------------------------------------|
				intro starts again here
e]-----13-13----------------------------------------------------------------|
b]-\13-----------------------------------------------------/5---------------|
g]-----------14^16-14-10~---12-----------------------------/5---------------|
d]--------------------------------------------------------------------------|
a]--------------------------------------------------------------------------|
e]--------------------------------------------------------------------------|

bridge	(rhythm)	repeat as long as needed
e]--------------------------------------------------------------------------|
b]--------------------------------------------------------------------------|
g]------------10------------------------------------------------------------|
d]-10----8----10----------------------10-12-10------------------------------|
a]-10----8----8-----10-12-10--8-10-8--8--8--8---10-12-10--------------------|
e]-8-----6----------8--8--8---6-6--6------------8--8--8---------------------|

bridge (lead)		repeat as long as necesary
e]-------12~-------10~--------13~---------12~-------------------------------|
b]--------------------------------------------------------------------------|
g]-10/12------8/10------12/14------10/12------------------------------------|
d]--------------------------------------------------------------------------|
a]--------------------------------------------------------------------------|
e]--------------------------------------------------------------------------|

then intro

first tab i thought why not mooney suzuki
it might look confusing but its actually an easy song
By the Adrian
not just any adrian but the Adrian
Tap to rate this tab
 
# A B C D E F G H I J K L M N O P Q R S T U V W X Y Z