Song name
# A B C D E F G H I J K L M N O P Q R S T U V W X Y Z

Mooney Suzuki - Half Of My Heart tab

Half of my heart
By : The Mooney Suzuki

tab by : jbiskofski@gmail.com

May the Heavens and the Gods bless The Mooney Suzuki and its ever present, ever saving, 
ever forgiving leader - the great Sammy Davis Jr.

INTRO:
e-----------------------------------------\
B-----------------------------------------\
G-----------------------------------------\
D-----444-5-5-444-------------------------\
A-7-7-555-7-7-555-------------------------\
E-5-5-------------------------------------\

Do that for a while, try to look cool while you do it, otherwise it wont sound right

The other guitar does something like this:
e-----------------------------------------\
B-----777-8-8-777-------------------------\
G-9-9-777-9-9-777-------------------------\
D-7-7-------------------------------------\
A-----------------------------------------\
E-----------------------------------------\

BTBTV ( bridge thing before the verse ):
e-----------------------------------------\
B-----------------------------------------\
G-------0-2-2-----------------------------\
D-2-0h2-----------------------------------\
A-0---------------------------------------\
E-----------------------------------------\

VERSE:
e---------3-3-----------------------------\
B-----333-3-3-333-------------------------\
G-2-2-222-----222-------------------------\
D-2-2-000-----000-------------------------\
A-0-0-----2-2-----------------------------\
E---------3-3-----------------------------\

ASK THAT BITCH:
and how many times are you gonna make me cry ?
and how many times are you gonna say goodbye ?

BTBTV

VERSE

ASK THAT BITCH AGAIN

INTRO

SOLO:
e-----------------------------------------\
B----------------/10--5-7-7-7-7^p5--------\
G-----0-2-2-0h2-------5-7-7-7-7^p5--2-----\
D-0h2-------------------------------------\
A-----------------------------------------\
E-----------------------------------------\

e-----------------------------------------\
B-10p8-----------------BWANGAAA-----------\
G------9-7-557p5-7p5---BWANGAAA-----------\
D--------------------7-BWANGAAA-----------\
A-----------------------------------------\
E-----------------------------------------\

e-----------------------------------------\
B--------------------------10p8-----------\
G--7p5-7p5-7p5-7p5-7p5-7p5------9-7-------\
D-----------------------------------------\
A-----------------------------------------\
E-----------------------------------------\

== improvise the rest of the solo ==\

VERSE

OUTRO:
A D G DDD A
Tap to rate this tab
 
# A B C D E F G H I J K L M N O P Q R S T U V W X Y Z