Song name
# A B C D E F G H I J K L M N O P Q R S T U V W X Y Z

Mooney Suzuki - Alive And Amplified tab

IT LOOKS COMPLICATED BUT IT'S REALLY NOT, I JUST INCLUDED REPEATED PARTS SO YOU 
CAN PLAY ALONG WITHOUT HAVING TO GO BACK TO THE TOP

Tuning: Standard, EADGBe

Intro:                   (bar 12's (bar 9's
                            in        in
                          measure   measure
                           below)    below)
 
e|------------|---------|---------|--------|------------------|
B|-12-10------|-10------|---------|--------|------------------|
G|-------12-9-|----12-9-|----12-9-|------9-|------------------|
D|------------|---------|-12------|-12-9---|-12-9-------------|
A|------------|---------|---------|--------|------12-Let-ring-|
E|------------|---------|---------|--------|------------------|

Intro Continued... (count the strums below before playing if you need to):

   d d d d d d d d   d u d u d u d u d u d u d u d u
e|---------------------------------------------------|
B|---------------------------------------------------|
G|-5-5-5-5-5-5-5-5---9-9-9-9-9-9-9-9-9-9-9-9-9-9-9-9-|
D|-5-5-5-5-5-5-5-5---9-9-9-9-9-9-9-9-9-9-9-9-9-9-9-9-|
A|-3-3-3-3-3-3-3-3---7-7-7-7-7-7-7-7-7-7-7-7-7-7-7-7-|
E|---------------------------------------------------|

Verse:

   d u d u   d   d   d u d u   d   d
e|-----------------------------------|
B|-----------------------------------|
G|-9-9-9-9---9---8---7-7-7-7---7---8-| x2
D|-9-9-9-9---9---8---7-7-7-7---7---8-|
A|-7-7-7-7---7---6---5-5-5-5---5---6-|
E|-----------------------------------|

Verse Continued...:

   d u d u   d u d u
e|-------------------|
B|-------------------|
G|-9-9-9-9---7-7-7-7-| x2
D|-9-9-9-9---7-7-7-7-|
A|-7-7-7-7---5-5-5-5-|
E|-------------------|

Chorus:

e|---------------|
B|---------------|
G|-5-------9---9-| x4
D|-5---7---9---9-|
A|-3---7---7---7-|
E|-----5---------|

Verse:

   d u d u   d   d   d u d u   d   d
e|-----------------------------------|
B|-----------------------------------|
G|-9-9-9-9---9---8---7-7-7-7---7---8-| x2
D|-9-9-9-9---9---8---7-7-7-7---7---8-|
A|-7-7-7-7---7---6---5-5-5-5---5---6-|
E|-----------------------------------|

Verse Continued...:

   d u d u   d u d u
e|-------------------|
B|-------------------|
G|-9-9-9-9---7-7-7-7-| x2
D|-9-9-9-9---7-7-7-7-|
A|-7-7-7-7---5-5-5-5-|
E|-------------------|

Chorus:

e|---------------|
B|---------------|
G|-5-------9---9-| x4
D|-5---7---9---9-|
A|-3---7---7---7-|
E|-----5---------|

Verse:

   d u d u   d   d   d u d u   d   d
e|-----------------------------------|
B|-----------------------------------|
G|-9-9-9-9---9---8---7-7-7-7---7---8-| x2
D|-9-9-9-9---9---8---7-7-7-7---7---8-|
A|-7-7-7-7---7---6---5-5-5-5---5---6-|
E|-----------------------------------|

Intro:                   (bar 12's (bar 9's
                            in        in
                          measure   measure
                           below)    below)
 
e|------------|---------|---------|--------|------------------|
B|-12-10------|-10------|---------|--------|------------------|
G|-------12-9-|----12-9-|----12-9-|------9-|------------------|
D|------------|---------|-12------|-12-9---|-12-9-------------|
A|------------|---------|---------|--------|------12-Let-ring-|
E|------------|---------|---------|--------|------------------|

Intro Continued... (count the strums below before playing if you need to):

   d d d d d d d d   d u d u d u d u d u d u d u d u
e|---------------------------------------------------|
B|---------------------------------------------------|
G|-5-5-5-5-5-5-5-5---9-9-9-9-9-9-9-9-9-9-9-9-9-9-9-9-|
D|-5-5-5-5-5-5-5-5---9-9-9-9-9-9-9-9-9-9-9-9-9-9-9-9-|
A|-3-3-3-3-3-3-3-3---7-7-7-7-7-7-7-7-7-7-7-7-7-7-7-7-|
E|---------------------------------------------------|

Solo:

e|---------12------------------------------------------|
B|-15b(17)----x-13-15br(17)-12-------------------------|
G|-----------------------------14-14-14br(15)-12-14-12-|
D|-----------------------------------------------------|
A|-----------------------------------------------------|
E|-----------------------------------------------------|

e|-------------------------------------------------------------|
B|-------------------------------------------------------------|
G|----12----12-14br(16)-12-14-12-12b(13)-12b(13)---------------|
D|-14----14------------------------------12b(13)-14-12b(13)-14-|
A|-------------------------------------------------------------|
E|-------------------------------------------------------------|

e|-------------------------------------------------------------|
B|-------------------------------------------------------------|
G|--12b(13)----14b-Hold-14br(15)-12-14-14br-x-5-14-12-12-------|
D|--12b(13)-14-------------------------------------------14-14-|
A|-------------------------------------------------------------|
E|-------------------------------------------------------------|

e|------------------------------------------|
B|------------------------------------------|
G|------------------------------------------|
D|-12-11br(12)-9----------9-11-12-9-9-9-9-9-|
A|---------------12-11-12-------------------|
E|------------------------------------------|

Solo 

(Verse is played in background, rhythm guitar and/or bass):

   d u d u   d   d   d u d u   d   d
e|-----------------------------------|
B|-----------------------------------|
G|-9-9-9-9---9---8---7-7-7-7---7---8-| x4
D|-9-9-9-9---9---8---7-7-7-7---7---8-|
A|-7-7-7-7---7---6---5-5-5-5---5---6-|
E|-----------------------------------|

(Bass)

G|-----------------------------------| 
D|-----------------------------------| x4
A|-7-7-7-7---7---6---5-5-5-5---5---6-|
E|-----------------------------------|

Chorus (soloing continues :P):

e|---------------|
B|---------------|
G|-5-------9---9-| x4
D|-5---7---9---9-|
A|-3---7---7---7-|
E|-----5---------|

Intro:                   (bar 12's (bar 9's
                            in        in
                          measure   measure
                           below)    below)
 
e|------------|---------|---------|--------|------------------|
B|-12-10------|-10------|---------|--------|------------------|
G|-------12-9-|----12-9-|----12-9-|------9-|------------------|
D|------------|---------|-12------|-12-9---|-12-9-------------|
A|------------|---------|---------|--------|------12-Let-ring-|
E|------------|---------|---------|--------|------------------|

Verse (ends on 5th-fret power chord):

   d u d u   d   d   d u d u   d   d
e|-----------------------------------|
B|-----------------------------------|
G|-9-9-9-9---9---8---7-7-7-7---7---8-| x4
D|-9-9-9-9---9---8---7-7-7-7---7---8-|
A|-7-7-7-7---7---6---5-5-5-5---5---6-|
E|-----------------------------------|

Tablature Legend:

d  - down strum
u  - up strum
br - bend and release
b  - bend
x  - muted note for that string
Tap to rate this tab
 
# A B C D E F G H I J K L M N O P Q R S T U V W X Y Z