Song name
# A B C D E F G H I J K L M N O P Q R S T U V W X Y Z

Mooney Suzuki - And Begin tab

http://www.themooneysuzuki.com/

e|------------------------
b|------------------------
g|------------------------
d|----------7-7-7-7-7-7---
a|--5-7-5-7---------------
e|------------------------this 6x

e|----------0----------------------------------------------------------------
b|----------0----------------------------------------------------------------
g|----------0----------------------------------------------------------------
d|----------0-7-7-7-7-7-7-7-7-7-7-7-7-7-7-7-7-7-7-7-7-7-7-7-7-7-7-7-7-7-7-7-7
a|--5-7-5-7-0----------------------------------------------------------------
e|----------0----------------------------------------------------------------

e|--------------------------
b|---------------8----------
g|-----5-7-5-9-9---7-5-7-5--
d|---7----------------------
a|--------------------------
e|--------------------------this 12X

e|--0---
b|--0---
g|--0---
d|--0---
a|--0---
e|--0---
Tap to rate this tab
# A B C D E F G H I J K L M N O P Q R S T U V W X Y Z