Song name
# A B C D E F G H I J K L M N O P Q R S T U V W X Y Z

Mooney Suzuki - Shake That Bush Again tab

         Mooney Suzuki-
         Shake that bush again
         Burnout 3:Takedown


    Standard tuning (EADGBe)

   INTRO:                   x3
   |---------------------------|------------------|
   |--10b(12)-10-8-5-5-5-------|---5-8-10-5-5-5-5-|
   |---------------------------|------------------|
   |---------------------------|------------------|
   |---------------------------|------------------|
   |---------------------------|------------------|

   Harmony:Guitar1
   |---------------------------|------------------|
   |--10b(12)-10-8-5-5-5-------|---5-8-10-5-5-5-5-|
   |---------------------------|------------------|
   |---------------------------|------------------|
   |---------------------------|------------------|
   |---------------------------|------------------|

           Guitar2
   |---------------------------|------------------|
   |---------------------------|------------------|
   |--14b(16)-14-12-9-9-9------|----9-12-14-9-9-9-|
   |---------------------------|------------------|
   |---------------------------|------------------|
   |---------------------------|------------------|

     solo:
   |--------------------------------------------------9-----------|
   |--9------------------9---------9---------9------------------9-|
   |--11b(13)hold-11b(13)---11b(13)---11b(13)--11b(13)---11b(13)--|
   |--------------------------------------------------------------|
   |--------------------------------------------------------------|
   |--------------------------------------------------------------|

   |-------------------------------------------------------------------|
   |----------------------------------------------9------------------9-|
   |--11-9----9-11b(13)-11-9---9-11-9------------11b(13)hold--11b(13)--|
   |-------11----------------11-------11--9----------------------------|
   |-----------------------------------------11------------------------|
   |-------------------------------------------------------------------|
                             x acouple of times
   |------------------------|-------------------|
   |------------------------|-9-----------------|
   |--11b-11-9--------------|-11b(13)-----------|
   |-----------11-9h11-9----|-------------------|
   |---------------------11-|-------------------|
   |------------------------|-------------------|

   thats about it. everything is 100% right expect for the solo, but you  have to listen 
to hear the mistakes, so in overrall everything is right.Hear the song for timing.
Tap to rate this tab
# A B C D E F G H I J K L M N O P Q R S T U V W X Y Z