Song name
# A B C D E F G H I J K L M N O P Q R S T U V W X Y Z

Moonpools And Caterpillars - Heaven tab

INTRO & VERSE
E||--------0-----|--------0-----|--------0-----|--------0-----|
B||------1---1---|------1---1---|------1---1---|------1---1---|
G||----0-------0-|----0-------0-|----0-------0-|----0-------0-|
D||--------------|--------------|--------------|--------------|
A||--3-----------|--2-----------|--0-----------|--2-----------|
E||--------------|--------------|--------------|--------------|

CHORUS   C              G              F
E||--0----0-0-----|--3---3-3-----|--1---1-1-----|
B||--1----1-1-----|--0---0-0-----|--1---1-1-----|
G||--0----0-0-----|--0---0-0-----|--2---2-2-----|
D||--2----2-2-----|--0---0-0-----|--3---3-3-----|
A||--3----3-3-----|--2---2-2-----|--3---3-3-----|
E||---------------|--3---3-3-----|--1---1-1-----|

Tap to rate this tab
# A B C D E F G H I J K L M N O P Q R S T U V W X Y Z