Song name
# A B C D E F G H I J K L M N O P Q R S T U V W X Y Z

Moonrise - The Lights Of A Distant Bay tab

                                          Artist - Moonrise
                                         *******************
                                  Song - The Lights Of A Distant Bay 
                                 ************************************
                                 Album - The Lights Of A Distant Bay 
                                *************************************
                                        Tabbed By - Ayreon77
                                       **********************




INTRO - PIANO
******
F#m  D  C#m E

-------------------------------------------------
VERSE 1
********
  F#m     
I see the lights
     D
Of a distant bay
     E                D
They seem to shine on me again

And their beams
  E             B
Uncover all the truth

-------------------------------------------------
VERSE 2
********
  F#m
I think of all
     D
That could have been
   E                   D
Of all the things that looked so real

And I know
     E                  B
They wonít come back to me

-------------------------------------------------
VERSE 3
********
F#m            D
   Just like a child
           E
I tried to hide
        D
My true desire, my state of mind
       E
All my life
           B
Was like a run

-------------------------------------------------
VERSE 4
********
F#m            D
   And now Iím here
              E
With just one plan
          D
I want to find myself again
        E          F#m
See the mystery of fate

-------------------------------------------------
CHORUS
*******
B D E Asus2 
01:37
SMALL SOLO - Play this with chorus below
***********              s        s                           b  r
[----------------------12\14--12--\-|---s--------------------12---10-12-]
[-12--10---s-----s-12---------------|-10\12--10---s-----s-12------------]
[---------9\11-9-\------------------|------------9\11-9-\---------------]
[-----------------------------------|-----------------------------------]
[-----------------------------------|-----------------------------------]
[-----------------------------------|-----------------------------------]
      
          B     D   E       Asus2
I see the light   I see the light
          B     D   E       Asus2
I see the light   I see the light
           B     D   E        Asus2
I feel the night   I feel the night    

-------------------------------------------------
VERSE 5
********
  F#m 
I seem to hear
    D
The freedom bell
     E                D
Itís in the distance, everywhere

I want to go
    E               B
But I canít move my feet

-------------------------------------------------
VERSE 6
********
F#m          D
   I sit and wait
           E
For day to come
          D
I see the lights of passing cars
         E                 B   F#m B F#m
And itís not the light for me

-------------------------------------------------
CHORUS - X2
*******
B D E Asus2
02:43
SMALL SOLO - Play this with chorus below
***********              s      p     h   s                    
[----------------------12\14--12-10-10-12-\-]
[-12--10---s-----s-12-----------------------]
[---------9\11-9-\--------------------------]
[-------------------------------------------]
[-------------------------------------------]
[-------------------------------------------] 


[------------------------------------]
[-12--10-----h--p--------------------]
[---------11--14-11-9----------------]
[---------------------12-11------h---]
[---------------------------12-12-14-]
[------------------------------------] 

                                              b  r  p
[---------------------------------------s----12---12-10-12-]
[----12---12---10-----------------s---10\12----------------]
[--s---------------11---p--------9\11----------------------]
[-9\------------------14-12-14-----------------------------]
[----------------------------------------------------------]
[----------------------------------------------------------]


[-----------------------------]
[-12--10---s------------------]
[---------9\11-9-7---p---s----]
[-------------------9-7-7\9-7-]
[-----------------------------]
[-----------------------------]
     
          B     D   E       Asus2
I see the light   I see the light
          B     D   E       Asus2
I see the light   I see the light
           B     D   E        Asus2
I feel the night   I feel the night    

-------------------------------------------------
03:47
PIANO BREAK - E C B D X
*************
-------------------------------------------------
PICKING BITS COMES IN AT 04:18
 E                   C                   B                   D
[-2-----0|-2-----0|-2-----0-|-2-----0-|-2-----0-|-2-----0-|-2-----0-|-------]
[---3----|---3----|---3-----|---3-----|---2-----|---2-----|---3-----|---3---]
[-----2--|-----2--|-----2---|-----2---|-----0---|-----0---|-----2---|-4---4-]
[--------|--------|---------|---------|---------|---------|---------|-------]
[--------|--------|---------|---------|---------|---------|---------|-------]
[--------|--------|---------|---------|---------|---------|---------|-----X2]

-------------------------------------------------
04:53
GUITAR SOLO
************
[---------------|-----------------------|-------------------------]
[---s-----br----|------h----------------|-------------s-----br----]
[-11\13--13--11-|-9-9-9-11-----h---9----|--h---9-11-11\13--13--11-]
[---------------|-------------9-11---11-|-9-11--------------------]
[---------------|-----------------------|-------------------------]
[---------------|-----------------------|-------------------------]


[---------------------------|---------------|------------------------]
[------h-----------brp------|---s-----br----|------h-----------------]
[-9-9-9-11--13-14-14--13-14-|-11\13--13--11-|-9-9-9-11------h---9----]
[---------------------------|---------------|------------9-9-11---11-]
[---------------------------|---------------|------------------------]
[---------------------------|---------------|------------------------]


[-------------------------|---------|----------------|----------------------]
[-------------s-----br----|----h----|-----7---7-7-7--|--10--10--10--10-10-10]
[--h---9-11-11\13--13--11-|-9-9-11~~|--9-9--9--------|----------------------]
[-9-11--------------------|---------|-9-9--9-9-9-9-9-|12--12--12--12-12-12--]
[-------------------------|---------|----------------|----------------------]
[-------------------------|---------|----------------|----------------------]


[--------------------|------------------------]
[--9---10-9-7--7-7-7-|---10--10--10--10-10-10-]
[---9--------9--9----|------------------------]
[-9--9--------9---9--|-12--12--12--12-12-12---]
[--------------------|------------------------]
[--------------------|------------------------]

05:42
[---s-------------|----------------------|---------------------------]
[-10\12-10-9--s---|-----s----b---br------|---------------------------]
[------------9\11-|-9-11\13-13--13--9-11-|--h---9---s--------h-------]
[-----------------|----------------------|-9-11---11\9-7-9--9-11-9-7-]
[-----------------|----------------------|---------------------------]
[-----------------|----------------------|---------------------------]


 GUITAR 1 - ELECTRIC
[---------------------------------------------------]
[---------------------------------------------------]
[--h-p----------------------------------------------]
[-6-7-6---6-----------s-----------------------------]
[-------9-------7----7\9----------------------------]
[---------------------------------------------------]
||05:55                                            ||
||CONTINUE WITH THIS PICKING PART THROUGHOUT THE REST OF THE SOLO.
||GUITAR 2 - ACOUSTIC PICKING                      ||
||          C#m                                 F#m||
[----------|-----------------|----------------|--2--]
[----------|---------5-------|----------5-----|--2--]
[----------|-----6-----6---6-|-----6------6---|--2--]
[----------|---6---6-----6---|---6---6------6-|--4--]
[----------|-4---------------|-4--------------|--4--]
[----------|-----------------|----------------|-----]


06:03
 GUITAR 1                              use vol pedal/guitar knob *
[--------------------------------------------------------------------------]
[--------b----rb------h--------s---------*---------------------------------]
[-11-13-13---13--11-11-13--9--9\11-------9---*---b-------------------------]
[--------------------------------------------9___|-------------------------]
[--------------------------------------------------------------------------]
[--------------------------------------------------------------------------]
||
||GUITAR 2
||D        C#m        F#m                 D         C#m
[-------2-|---------|-------------------|-------2-|---------------]
[-----3---|-------5-|-------2---------2-|-----3---|---------5-----]
[---2-----|-----6---|-----2---2-----2---|---2-----|-----6-----6---]
[-0-------|---6-----|---4---------4-----|-0-------|---6---6-----6-]
[---------|-4-------|-4---------4-------|---------|-4-------------]
[---------|---------|-------------------|---------|---------------]


06:15
 GUITAR 1                                                                 
[------------------------------------------------------------------------]
[------------------------------------------------------------------------]
[------------------------------------------------------------------------]
[------------------------------------------------------------------------]
[------------------------------------------------------------------------]
[------------------------------------------------------------------------]
||GUITAR 2                                                              ||
||F#m               A                 Asus2             Bm              ||
[---------2-------|---------2-------|---------0-------|----------0-------]
[-----2-----2---2-|-----2-----2---2-|-----0-----0---0-|-----3------3---3-]
[---2---2-----2---|---2---2-----2---|---2---2-----2---|-------4------4---]
[-4---------------|-2---------------|-2---------------|---4--------------]
[-----------------|-----------------|-----------------|-2----------------]
[-----------------|-----------------|-----------------|------------------]
 

 GUITAR 1                                              06:30             
[--------------------------------------------------------*---*----------]
[-------------------------------------------------------10---9---*----*-]
[----------------------------------------------------------------9---11-]
[-----------------------------------------------------------------------]
[-----------------------------------------------------------------------]
[-----------------------------------------------------------------------]
||GUITAR 2                                                             ||
||F#m               D                 Asus2             Bm             ||
[---------2-------|---------2-------|---------0-------|-----------------]
[-----2-----2---2-|-----3-----3---3-|-----0-----0---0-|---------3-------]
[---2---2-----2---|---2---2-----2---|---2---2-----2---|-----4-----4---4-]
[-4---------------|-0---------------|-2---------------|---4---4-----4---]
[-----------------|-----------------|-----------------|-2---------------]
[-----------------|-----------------|-----------------|-----------------]


 GUITAR 1                                              06:38             
[--------------------------------------------------------*---*----------]
[-------------------------------------------------------10---9---*------]
[----------------------------------------------------------------9----*-]
[--------------------------------------------------------------------11-]
[-----------------------------------------------------------------------]
[-----------------------------------------------------------------------]
||GUITAR 2                                                             ||
||F#m               D                 E                 D              ||
[---------2-------|---------2-------|---------0-------|---------2-------]
[-----2-----2---2-|-----3-----3---3-|-----0-----0---0-|-----3-----3---3-]
[---2---2-----2---|---2---2-----2---|---1---2-----1---|---2---2-----2---]
[-4---------------|-0---------------|-2---------------|-0---------------]
[-----------------|-----------------|-----------------|-----------------]
[-----------------|-----------------|-----------------|-----------------]


 GUITAR 1                              slow steady bend                  
[-------------------------------------*--b------------------------------]
[------------------------------------12---------------------------------]
[-----------------------------------------------------------------------]
[-----------------------------------------------------------------------]
[-----------------------------------------------------------------------]
[-----------------------------------------------------------------------]
||GUITAR 2                                                             ||
||F#m               D                 E                 D              ||
[---------2-------|---------2-------|---------0-------|---------2-------]
[-----2-----2---2-|-----3-----3---3-|-----0-----0---0-|-----3-----3---3-]
[---2---2-----2---|---2---2-----2---|---1---2-----1---|---2---2-----2---]
[-4---------------|-0---------------|-2---------------|-0---------------]
[-----------------|-----------------|-----------------|-----------------]
[-----------------|-----------------|-----------------|-----------------]


06:48        JUST CONTINUE WITH THE ACOUSTIC PICKING TILL THE END...
 GUITAR 1
 F#m          D          E           Bm
[------|----------------------------------]
[--s---|-------h----b--br---------brp-----]
[-9\11-|-----11-13-13-13--9---11-11--9-11-]
[------|-11-------------------------------]
[------|----------------------------------]
[------|----------------------------------]

                                         kinda fast
[----------|--------------------|-----------0-----------|------------]
[------h---|-------h----b--br---|---------7----h-p------|------------]
[-9-9-9-11-|-----11-13-13-13--9-|-11-9-7------6-7-6--s--|------s---s-]
[----------|-11-----------------|-------------------7\9-|-7-9-9\11-\-]
[----------|--------------------|-----------------------|------------]
[----------|--------------------|-----------------------|------------]

 MUTE with right hand
[-----------------------b-|--br--s---s--|---------h--s-]
[---------------7-9-10-10-|-10--9\5-5\7-|-12-12-12-14\-]
[----------6-9------------|-------------|--------------]
[-----7-9-----------------|-------------|--------------]
[-7-9---------------------|-------------|--------------]
[-------------------------|-------------|--------------]

07:14
[---h--p----------------------|----------|------------------------]
[-14-17-14-----------brp------|----------|------h--p--------------]
[----------16-14-16-16--14----|---h------|-14-13-14-13------s---s-]
[--------------------------16-|-14-16-14-|-------------14-14\16-\-]
[-----------------------------|----------|------------------------]
[-----------------------------|----------|------------------------]

07:20
[----------|----------|-------------|-------------------|----------]
[----------|----------|-------------|-------------------|------h---]
[--brp-----|--brp-----|----h--------|--------brp-----9--|-9-9-9-11-]
[-11--9-11-|-11--9-11-|-7-7-9----h--|--h---7-9--7-9---9-|----------]
[----------|----------|-------7-7-9-|-7-9---------------|----------]
[----------|----------|-------------|-------------------|----------]


[----------b-12-rb------h------|--h--p------------------------]
[-9-10-12-12___12--10-10-12-10-|-9-10-9----9--------brp---h---]
[------------------------------|--------11---9-11--11--9-9-11-]
[------------------------------|------------------------------]
[------------------------------|------------------------------]
[------------------------------|------------------------------]

07:38
   b               b      h  p    h p         s
[-12-12-10-9-10-9-10-10--9-10-9--7-9-7-5---5-5\7-|-------------]
[----------------------------------------7-------|-10-9----s---]
[------------------------------------------------|------9-9\11-]
[------------------------------------------------|-------------]
[------------------------------------------------|-------------]
[------------------------------------------------|-------------]


[----------------|-----------|-----------|---------|-------------]
[----------10----|--h--p-----|-----------|---------|-------------]
[------h------11-|-9-11-9----|-9-----h---|------p--|-------------]
[-9-9-9-11-------|--------11-|---11-9-11-|-9-7-9-7-|------h------]
[----------------|-----------|-----------|---------|-9-7-7-9---7-]
[----------------|-----------|-----------|---------|-------------]


[-----------------|----------|------------|--------------------------b---s--]
[----------p---s--|--p---s---|---p----s---|---p-----s----b-17-b--17-17-17\19]
[-------6-7-6-7\9-|-9-7-9\11-|-11-9-11\13-|-14-13-14\16-16----16------------]
[-6-7-9-----------|----------|------------|---------------------------------]
[-----------------|----------|------------|---------------------------------]
[-----------------|----------|------------|---------------------------------]


[--b-----------|----------|--------s---|---p-----|--h--p----------------]
[-17-----------|------h---|-9-10-10\12-|-10-9-10-|-9-10-9----9----------]
[----16--14-13-|-9-9-9-11-|------------|---------|--------11---9-9----9-]
[--------------|----------|------------|---------|-----------------11---]
[--------------|----------|------------|---------|----------------------]
[--------------|----------|------------|---------|----------------------]

08:06
[--------|--------------------|---------vol-pedal-]
[--h-----|-br-------brp-----s-|-------------------]
[-9-11-9-|-9--7--6--6--4-6--\-|--h---s------------]
[--------|--------------------|-7-9--\--*-s-------]
[--------|--------------------|---------7-\9------]
[--------|--------------------|-------------------]


Excellent Track. Very tricky in parts.


ENJOY..........
Tap to rate this tab
# A B C D E F G H I J K L M N O P Q R S T U V W X Y Z