Song name
# A B C D E F G H I J K L M N O P Q R S T U V W X Y Z

Moonshine Bandits - Full Throttle tab

INTRO-played on the banjo but this sounds good on guitar
I play it like this low
----------------------------------------|
----------------------------------------|
----------------------------------------|
----------------------------------------|
------------7h9----9p7----7p6----6p4----|
----------------------------------------|

U can also play it like this high
----------------------------------------|
------5h7----7p5----5p4----4p2----------|
----------------------------------------|
----------------------------------------|
----------------------------------------|
----------------------------------------|
*turn tables*
Verse
------------------------------------|
------------------------------------|
------------------------------------|
------44444-----99-----77777-----22-|
------44444--/--99--\--77777--\--22-|
------22222-----77-----55555-----00-|

Chorus
------------------------------------|
------------------------------------|
------------------------------------|
------44444-----99-----77777-----22-|
------44444--/--99--\--77777--\--22-|
------22222-----77-----55555-----00-|
OR u can play the chord version
F#    B    A    E

have fun [><]
Tap to rate this tab
 
# A B C D E F G H I J K L M N O P Q R S T U V W X Y Z