Song name
# A B C D E F G H I J K L M N O P Q R S T U V W X Y Z

Moonsorrow - Tulimyrsky tab

First of all, Yes, Standard tuning.

Second, I haven't tabbed the entire song yet. It sounds okay to me, if there are any 
that need correcting please leave a comment.

To get the rhythm, listen to the song.

e|--------------------------------------------------|
B|--------------------------------------------------|
G|--------------------------------------------------|
D|--2--2--2---2-2--2-2--2---------------------------|
A|--2--2--2---2-2--2-2--2---------------------------|
E|--0--0--0---0-0--0-0--0---------------------------|


e|--------------------------------------------------|
B|--------------------------------------------------|
G|--------------------------------------------------|
D|--12--12--12---12-12--12-12--12-------------------|
A|--10--10--10---10-10--10-10--10-------------------|
E|--10--10--10---10-10--10-10--10-------------------|


e|--------------------------------------------------|
B|--------------------------------------------------|
G|--------------------------------------------------|
D|--13--13--13---13-13--13-13--13-------------------|
A|--11--11--11---11-11--11-11--11-------------------|
E|--11--11--11---11-11--11-11--11-------------------|

e|--------------------------------------------------|
B|--------------------------------------------------|
G|--------------------------------------------------|
D|--2--2--2---2-2--2-2--2---------------------------|
A|--2--2--2---2-2--2-2--2---------------------------|
E|--0--0--0---0-0--0-0--0---------------------------|

Mix that up how it sounds right.

e|--------------------------------------------------|
B|----------------11------------8------------7------|
Tap to rate this tab
# A B C D E F G H I J K L M N O P Q R S T U V W X Y Z