Song name
# A B C D E F G H I J K L M N O P Q R S T U V W X Y Z

Moonsorrow - Tulimyrsky tab

Alright I already uploaded this when as unregistered but I've since updated and 
tweaked the tab and here it is.

Listen to the song to get the rhythm and riffs correct. Its not that hard, believe me :-)

e|--------------------------------------------------|
B|--------------------------------------------------|
G|--------------------------------------------------|
D|--2--2--2---2-2--2-2--2---------------------------|
A|--2--2--2---2-2--2-2--2---------------------------|
E|--0--0--0---0-0--0-0--0---------------------------|


e|--------------------------------------------------|
B|--------------------------------------------------|
G|--------------------------------------------------|
D|--12--12--12---12-12--12-12--12-------------------|
A|--10--10--10---10-10--10-10--10-------------------|
E|--0----0---0----0--0---0--0---0-------------------|


e|--------------------------------------------------|
B|--------------------------------------------------|
G|--------------------------------------------------|
D|--13--13--13---13-13--13-13--13-------------------|
A|--11--11--11---11-11--11-11--11-------------------|
E|---0---0---0----0--0---0--0---0-------------------|

e|--------------------------------------------------|
B|--------------------------------------------------|
G|--------------------------------------------------|
D|--2--2--2---2-2--2-2--2---------------------------|
A|--2--2--2---2-2--2-2--2---------------------------|
E|--0--0--0---0-0--0-0--0---------------------------|

Mix that up how it sounds right, then..

e|--------------------------------------------------|
B|--------------------------------------------------|
G|--------------------------------------------------|
D|--5-5-5--5-5-5--5-5-5--5-5-5--7-7-7---------------|
A|--3-3-3--3-3-3--3-3-3--3-3-3--5-5-5---------------|
E|--------------------------------------------------|


Not entirely sure on this part.
e|-------------------------------|
B|-------------------------------|
G|-------------------------------|
D|-2--5-7~-----------------------|
A|-2--3-5~-----------------------|
E|-0-----------------h6/0--------|
                      ^Slide
 
                   
e|--------------------------------------------------|
B|--------------------------------------------------|
G|--------------------------------------------------|
D|-------------9999-----------6666-----------5555---|
A|----------7h8------------7h8------------7h8-------|
E|--00000000-------00000000-------00000000----------|


e|-------------------------------|
B|-------------------------------|
G|-------------------------------|
D|-------------------------------|
A|---------7h-88888888-----------|
E|-00000000----------------------|

..Later that day...

e|-------------------------------|
B|-------------------------------|
G|-------------------------------|
D|-------------------------------|
A|---------7-66666666666666666---|
E|----8p7h8----------------------|

e|-------------------------------|
B|-------------------------------|
G|-------------------------------|
D|-------------------------------|
A|------7-666666666666667777777--|
E|----8--------------------------|


...And then...

e|--------------------------------------------------|
B|--------------------------------------------------|
G|--------------------------------------------------|
D|--10-10-10-10-10-10-10-10-------------------------| Check rhythm
A|---8--8--8--8--8--8--8--8-------------------------|
E|--------------------------------------------------|

e|-------------------------------|
B|-------------------------------|
G|-------------------------------|
D|--9--9-9--9--9-9---------------| 
A|--9--9-9--9--9-9---------------|
E|--7--7-7--7--7-7---------------|


Alot of these riffs repeat. Hope they helped.
Tap to rate this tab
# A B C D E F G H I J K L M N O P Q R S T U V W X Y Z