Song name
# A B C D E F G H I J K L M N O P Q R S T U V W X Y Z

Moonsorrow - Pakanajuhla tab

-------------------------------------------------------------------------------
			     Pakanajuhla - Moonsorrow
-------------------------------------------------------------------------------
Tabbed by: Me =D ( devin )
Email:  ...



e|--------3-7-7-5-----5------------------------------------------------------|
B|-5-3-5--------- -8-----7-7-5-3-5-------------------------------------------|
G|-----------------------------------4---------------------------------------|
D|---------------------------------------------------------------------------|
A|---------------------------------------------------------------------------|
E|---------------------------------------------------------------------------|

e|--------3-7-7-5-----5------------------------------------------------------|
B|-5-3-5--------- -8-----7-7-8-5-5-------------------------------------------|
G|---------------------------------------------------------------------------|
D|---------------------------------------------------------------------------|
A|---------------------------------------------------------------------------|
E|---------------------------------------------------------------------------|

Tap to rate this tab
 
# A B C D E F G H I J K L M N O P Q R S T U V W X Y Z